» » »

Savage Garden, Truly Madly Deeply Tabs (ver.3)

Artists:  A B C D E F G H I J K L M N O P Q R S T U V W X Y Z # 

Truly Madly Deeply Tabs (ver.3)

Savage Garden Tabs
 Rating:
4/5 (4 votes)
Truly Madly Deeply lessons Tabs too difficult? Try these video lessons and learn fast
                Truly Madly Deeply acoustic guitar tab

Intro
E|---------|
B|-5–3-1–3-|
G|-5–4-2-4-|
D|-5–5-3–5-|
A|---------|
E|---------|

Verse 1:
E|--------------------------------------|
B|-1–1–1–1–1–1–1–1–1–1–––1–1–--1–1--3-3-|
G|----------------------2-----2---------|
D|--------------------------------------|
A|--------------------------------------|
E|--------------------------------------| x2

	I’ll be you dream, I’ll be your wish I’ll be your fantasy.
	I’ll be your hope; I’ll be your love be everything that you need.
I love you more with every breath truly madly deeply do...
I will be strong I will be faithful ‘cause I’m counting on


Pre Chorus:
E|-3-------3-------3------------|
B|--1–0–1–1–-1–0–1–1––1–0–1-----|
G|------------------------0-2-0-|
D|------------------------------|
A|------------------------------|
E|------------------------------|

	A new beginning.
	A reason for living.
	A deeper meaning.


Chorus:
E|-0-----0-------0-----0---------|
B|--3-1-1--3-1-3----3-1-1--3-1-3-|
G|------------0------------------|
D|-------------------------------|
A|-------------------------------|
E|-------------------------------|

I want to stand with you on a mountain.

I want to bathe with you in the sea.

I want to lay like this forever.

Until the sky falls down on me.

Verse 2:
	E|---------------------------|
	B|-1-1-1-1-1-1-1-1-1-1—1-1-1-|
	G|-----------------2---------|
	D|---------------------------|
	A|---------------------------|
	E|---------------------------|

And when the stars are shining brightly in the velvet sky,



	E|----------------------------|
	B|-1-1-1-1-1-1-1-1------1-3-3-|
	G|-------------------------2--|
	D|----------------------------|
	A|----------------------------|
	E|----------------------------|

I’ll make a wish send it to heaven then make you want to cry…


	E|-------------------------------|
	B|-1-1-1-1-1-1-1-1-1----11-3-3\1-|
	G|--------------------------2----|
	D|-------------------------------|
	A|-------------------------------|
	E|-------------------------------|

The tears of joy for all the pleasure and certainty.


	E|------------------------------|
	B|-1-1-1-1-1-1-1-1-1-1---1-1----|
	G|----------------------------2-|
	D|------------------------------|
	A|------------------------------|
	E|------------------------------|

That we’re surround by the comfort and protection of…


	E|-3-----------3----------------|
	B|---1-0-1-1---1-0-1------------|
	G|------------------------0-2-0-|
	D|------------------------------|
	A|------------------------------|
	E|------------------------------|

	The highest power.
	In lonely hours
	The tears devour you…


Chorus:
	E|----0--------0-0-0-0--------0-0-0-0---------------0--------|
	B|-1-1—3-1-3-1---------3-3-1----------3-1-3-1---1-1--3-1-3-1-|
	G|-2-------------------------------------------2-------------|
	D|-----------------------------------------------------------|
	A|-----------------------------------------------------------|
	E|-----------------------------------------------------------|

	Oh can’t you see it baby?
	You don’t have to close your eyes ; cause it’s standing right before you.
		All that you need will surely come…


	Replay Verse 1 then that’s all I know. 
	I hope you all enjoy this. ^  ^
            
Submit corrections

comments powered by Disqus
↑ Back to top | Savage Garden Tabs for Truly Madly Deeply. Lyrics for acoustic guitar and electric guitar. Tablatures and chords are parodies/interpretations of the original songs. You may use it for private study, scholarship, research or language learning purposes only