>
 >
To The Moon And Back

To The Moon And Back Guitar Tabs

Savage Garden - To The Moon And Back chords, tabs, tablatures, lyrics

Guitar lessons | Add/correct | Request | Top 50 tabs Artists:  A B C D E F G H I J K L M N O P Q R S T U V W X Y Z 0-9

To The Moon And Back Guitar Tabs – Savage Garden

CD, Sheet music, Poster

Do you like To The Moon And Back? Share with your friends now
Bass TabsChordsChords v2Chords v3Chords v4Chords v5TabsTabs v2Tabs v3Ukulele
----------------------------------------------------------------------------
                 To The Moon & Back (solo) - Savage Garden
----------------------------------------------------------------------------

Tuning: EADGBe

Intro (strum the second chords after each slide for a few counts. listen to
the song to figure out the right number)

e|-6/8--8\6--6/8--8\4--4/6-------------------------------------------------|
B|-6/8--8\6--6/8--8\4--4/6-------------------------------------------------|
G|-------------------------------------------------------------------------|
D|-------------------------------------------------------------------------|
A|-------------------------------------------------------------------------|
E|-------------------------------------------------------------------------|

e|-3--3--3--4--------------------------------------------------------------|
B|-4--3--3--4--------------------------------------------------------------|
G|-5--3--3--5--------------------------------------------------------------|
D|-5--3--5--6--------------------------------------------------------------|
A|-3--3--5--6--------------------------------------------------------------|
E|-------3--4--------------------------------------------------------------|

Chorus

e|-3--4--6--3----3--3--3--4--8---------------------------------------------|
B|-4--4--6--3----4--3--3--4--8---------------------------------------------|
G|-5--5--7--3----5--3--3--5--7---------------------------------------------|
D|-5--6--8--5----5--3--5--6--8---------------------------------------------|
A|-3--6--8--5----3--3--5--6--8---------------------------------------------|
E|----4--6--3----------3--4--6---------------------------------------------|

Verse

e|-3--3--3--4--8-----------------------------------------------------------|
B|-4--3--3--4--8-----------------------------------------------------------|
G|-5--3--3--5--7-----------------------------------------------------------|
D|-5--3--5--6--8-----------------------------------------------------------|
A|-3--3--5--6--8-----------------------------------------------------------|
E|-------3--4--6-----------------------------------------------------------|

Solo

e|-------13~11-----10~~8---------------------------------------------------|
B|-8-11--------13--------11------------------------------------------------|
G|-------------------------------------------------------------------------|
D|-------------------------------------------------------------------------|
A|-------------------------------------------------------------------------|
E|-------------------------------------------------------------------------|

e|-------------------------------------------------------------------------|
B|-11-13-13--11-13--------------11-9-8h9p8---------------------------------|
G|------------------10h12-1010--------------8-10---------------------------|
D|------------------------------------------------8/10-8-8-----------------|
A|-------------------------------------------------------------------------|
E|-------------------------------------------------------------------------|

e|-------------------------------------------------------------------------|
B|--------------------------11---------------------------------------------|
G|--------------------10-12-----13-12-10--------10-------------------------|
D|-------10--10-12-13---------------------13-12-----13-12-10-10------------|
A|-10-13-------------------------------------------------------------------|
E|-------------------------------------------------------------------------|

e|------8-8-----10-10-----11-11----11/13-13-13--10-11-13--10-11-10---------|
B|-6/8-------8---------8--------8----------------------------------11------|
G|-------------------------------------------------------------------------|
D|-------------------------------------------------------------------------|
A|-------------------------------------------------------------------------|
E|-------------------------------------------------------------------------|

e|-------------------------------------------------------------------------|
B|-------13-11-11-13-------------------------------------------------------|
G|-12-12-------------------------------------------------------------------|
D|-------------------------------------------------------------------------|
A|-------------------------------------------------------------------------|
E|-------------------------------------------------------------------------|

| /  slide up
| \  slide down
| h  hammer-on
| p  pull-off
| ~  vibrato
| +  harmonic
| x  Mute note

There ya go! :) Have fun!

============================================================================





Comments


Popular Savage Garden tabs & chords
I Knew I Loved You 1 Bass Tabs
Affirmation Chords
California Chords
Crash And Burn 3 Chords
Fire Inside The Man Chords
Santa Monica Tabs
California Ukulele
Fire Inside The Man Ukulele
Ill Be There Ukulele
Thousand Words Ukulele


Song lyrics



↑ Back to top | Tablatures and chords are parodies/interpretations of the original songs. You may use it for private study, scholarship, research or language learning purposes only
© 2014 AZChords.com Contact us | Privacy policy | DMCA | Add/correct tabs | Request tabs | Top 50 tabs