» » »

I Want You Bass tabs (ver.1)

Artists:  A B C D E F G H I J K L M N O P Q R S T U V W X Y Z # 

I Want You Bass tabs (ver.1)

Savage Garden
Rating:
4/5 (1 vote)

Hard to play? Try these video lessons and learn fast.
                SAVAGE GARDEN - "I Want You" - Bass Tab

common time(4/4)
standard tuning(EADG)

INTRO/VERSE:

|----------------------|--------------------|---------------------|
|*---------------------|--------------------|---------------------|
|*---------------------|--------------------|---------------------|
|--3-3-3-3-3-3-3-3-3-3-|-3-3-3-3-3-3-3-3-3/-|-8-8-8-8-8-8-8-8-8-8-|
   1 & 2 & a 3 & 4 e &   1 & 2 & a 3 & 4 &    1 & 2 & a 3 & 4 e &

|-----------------------|
|----------------------*|
|----------------------*|
|-8-8-8-8-8-8-8-8-8-8/--|
  1 & 2 & a 3 & 4 e &

PRE-CHORUS:

|----------------|----------------|
|*---------------|---------------*|
|*-5-5-5-5-5-5-5-|-3-3-3-3-3-3-3-*|(x2)
|----------------|----------------|
   (not sure of timing)

CHORUS:

|------------------|-----------------|-----------------|
|*-----------------|-----------------|-----------------|
|*-1-1-1-1-3-3-3-3-|-----------------|-1-1-1-1-3-3-3-3-|
|------------------|-3-3-3-3-3-3-3-3-|-----------------|
   1 & 2 & 3 & 4 &   1 & 2 & 3 & 4 &   1 & 2 & 3 & 4 &

                         (x2)
|----------------------------|---------|
|---------0-0-5-3-0-0-5-3-0-*|---------|
|---------------------------*|---------|
|-3-3-3----------------------|-3-------|
  1 & 2 & a 3 e & a 4 e & a    1 2 3 4 

INTERLUDE:

|-----------|-----------|---------------------|
|-----------|-----------|---------------------|
|-3-r-------|-3-r-------|---------------------|
|-----6---r-|-----6---r-|-3-3-3-3-3-3-3-3-3-3-|
  1 2 & 3 4   1 2 & 3 4   1 & 2 & a 3 & 4 e &   

MIDDLE EIGHT:
Rest(x12 bars)

END:
Chorus(x4)
            
Hard to play? Try these video lessons and learn fast. | Correct




comments powered by Disqus
↑ Back to top | Tablatures and chords are parodies/interpretations of the original songs. You may use it for private study, scholarship, research or language learning purposes only