>
 >
Crash And Burn

Crash And Burn Guitar Tabs

Savage Garden - Crash And Burn chords, tabs, tablatures, lyrics

Guitar lessons | Add/correct | Request | Top 50 tabs Artists:  A B C D E F G H I J K L M N O P Q R S T U V W X Y Z 0-9

Crash And Burn Guitar Tabs – Savage Garden

CD, Sheet music, Poster

Do you like Crash And Burn? Share with your friends now
Bass TabsChordsChords v2Chords v3Chords v4TabsTabs v2Ukulele
-------------------------------------------------------------------------------
			     Savage Garden_-_Crash And Burn (v1.1)
-------------------------------------------------------------------------------

Tuning: Standard tuning (E A D G B E)

Kinda seemed to me that most of the chords are wrong...some are from the version
with the capo.Dude,watch what your typing man.Singaporeans have this problem. I
should know.I'm one of them.LOL.I keep listening to this song..and it's impossible
without 3 electric guitars and a bass guitar and a drum.Won't sound nice at
all.The rest are added just for flavour.These are not the best yet because I did
this all in 20 minutes together with playing the song for all 3 electric guitars
while I was tabbing it...check back for mistakes or changes that I've made from
comments and the likes.

Version 1.1 - 2nd Frebruary 2004 - Just added one note to Verse 3.
Version 1.0 - 1st February 2004

Guitar 1 Should be played clean,with guitar Tone at full,but you can play with
full distortion with Tone at 0.Both ways sound fine,and if you decide to do a solo
(highly unlikely but possible) it'll be easier as you can just turn the tone back
up to hear the distortion again..rather then reaching down to your amplifier.

Intro
Guitar 1
   E                B                C#m                 Asus2
e|-----0-------0--------------------------------------------------------------|
B|---0---0---0---0-----------------------------------------------------0------|
G|------------------------4-------4-----------6-------6------------2-----2---2|
D|-2-------2------------4---4---4---4-------6---6---6---6--------2---2-----2--|
A|--------------------2-------2-----------4-------4------------0--------------|
E|----------------------------------------------------------------------------|
Guitar 2
e|-0~-7~-12~-7~-0~-7~------------------------0~-12~-7~-0~-12~----------------|
B|---------------------------------------------------------------------------|
G|----------------------------------------6~---------------------------------|
D|---------------------------------------------------------------------------|
A|---------------------------------------------------------------------------|
E|---------------------------------------------------------------------------|

Intro (con't.d)
Guitar 1
   E                B                C#m                 Asus2
e|-----0-------0--------------------------------------------------------------|
B|---0---0---0---0-----------------------------------------------------0------|
G|------------------------4-------4-----------6-------6------------2-----2---2|
D|-2-------2------------4---4---4---4-------6---6---6---6--------2---2-----2--|
A|--------------------2-------2-----------4-------4------------0--------------|
E|----------------------------------------------------------------------------|
Guitar 2
e|-0~-7~-12~-7~-0~-7~------------------------0~-12~-7~-0~-12~----------------|
B|---------------------------------------------------------------------------|
G|----------------------------------------6~---------------------------------|
D|---------------------------------------------------------------------------|
A|---------------------------------------------------------------------------|
E|---------------------------------------------------------------------------|


Guitar 3
e|---------------------------------------------------------------------------|
B|-10---10-10-10-9-9~---7~---10---10-10-10-9-9~------------------------------|
G|---------------------------------------------------------------------------|
D|---------------------------------------------------------------------------|
A|---------------------------------------------------------------------------|
E|---------------------------------------------------------------------------|

Verse 1
Guitar 1
   E                B                C#m                 Asus2
e|-----0-------0--------------------------------------------------------------|
B|---0---0---0---0-----------------------------------------------------0------|
G|------------------------4-------4-----------6-------6------------2-----2---2|
D|-2-------2------------4---4---4---4-------6---6---6---6--------2---2-----2--|  
A|--------------------2-------2-----------4-------4------------0--------------|
E|----------------------------------------------------------------------------|
										    3x

Verse 1 (con't.d)
Guitar 1
   E                B                C#m                 Asus2
e|-----0-------0--------------------------------------------------------------|
B|---0---0---0---0-----------------------------------------------------0------|
G|------------------------4-------4-----------6-------6------------2-----2---2|
D|-2-------2------------4---4---4---4-------6---6---6---6--------2---2-----2--|  
A|--------------------2-------2-----------4-------4------------0--------------|
E|----------------------------------------------------------------------------|
Guitar 2
e|-0~-7~-12~-7~-0~-7~------------------------0~-12~-7~-0~-12~----------------|
B|---------------------------------------------------------------------------|
G|----------------------------------------6~---------------------------------|
D|---------------------------------------------------------------------------|
A|---------------------------------------------------------------------------|
E|---------------------------------------------------------------------------|

Pre-Chorus
Guitar 1
   C#m			Asus2	     B		C#m			D  D     A  A
e|----------------------------------------------------------5--5-----0--0----|
B|----------------------------------------------------------7--7-----2--2----|
G|-----6-------6---------2---------4---------6-------6------7--7-----2--2----|
D|---6---6---6---6-----2---2-----4---4-----6---6---6---6----7--7-----2--2----|
A|-4-------4---------0---------2---------4-------4----------5--5-----0--0----|
E|----------------------------------------------------------5--5-----0--0----|

Chorus
Guitar 1
E	B	A
Guitar 3
e|---------------------------------------------------------------------------|
B|-10---10-10-10-9-9~--------------------------------------------------------|
G|---------------------------------------------------------------------------|
D|---------------------------------------------------------------------------|
A|---------------------------------------------------------------------------|
E|---------------------------------------------------------------------------|







Chorus (con't.d)
Guitar 1
E	C#m	B
Guitar 3
e|---------------------------------------------------------------------------|
B|-10---10-10-10-9-9~--------------------------------------------------------|
G|---------------------------------------------------------------------------|
D|---------------------------------------------------------------------------|
A|---------------------------------------------------------------------------|
E|---------------------------------------------------------------------------|

Chorus (con't.d)
Guitar 1
E	B	A
Guitar 3
e|---------------------------------------------------------------------------|
B|-10---10-10-10-9-9~--------------------------------------------------------|
G|---------------------------------------------------------------------------|
D|---------------------------------------------------------------------------|
A|---------------------------------------------------------------------------|
E|---------------------------------------------------------------------------|

Chorus (con't.d)
Guitar 1
E	C#m	B
Guitar 3
e|---------------------------------------------------------------------------|
B|-10---10-10-10-9-9~--------------------------------------------------------|
G|---------------------------------------------------------------------------|
D|---------------------------------------------------------------------------|
A|---------------------------------------------------------------------------|
E|---------------------------------------------------------------------------|

Break
Guitar 1
   E                B                C#m                 Asus2
e|-----0-------0--------------------------------------------------------------|
B|---0---0---0---0-----------------------------------------------------0------|
G|------------------------4-------4-----------6-------6------------2-----2---2|
D|-2-------2------------4---4---4---4-------6---6---6---6--------2---2-----2--|
A|--------------------2-------2-----------4-------4------------0--------------|
E|----------------------------------------------------------------------------|

Verse 2
Guitar 1
   E                B                C#m                 Asus2
e|-----0-------0--------------------------------------------------------------|
B|---0---0---0---0-----------------------------------------------------0------|
G|------------------------4-------4-----------6-------6------------2-----2---2|
D|-2-------2------------4---4---4---4-------6---6---6---6--------2---2-----2--|  
A|--------------------2-------2-----------4-------4------------0--------------|
E|----------------------------------------------------------------------------|

Verse 2 (con't.d)
Guitar 1
   E                B                C#m                 Asus2
e|-----0-------0--------------------------------------------------------------|
B|---0---0---0---0-----------------------------------------------------0------|
G|------------------------4-------4-----------6-------6------------2-----2---2|
D|-2-------2------------4---4---4---4-------6---6---6---6--------2---2-----2--|  
A|--------------------2-------2-----------4-------4------------0--------------|
E|----------------------------------------------------------------------------|
Guitar 3
e|---------------------------------------------------------------------------|
B|-10---10-10-10-9-9~--------------------------------------------------------|
G|---------------------------------------------------------------------------|
D|---------------------------------------------------------------------------|
A|---------------------------------------------------------------------------|
E|---------------------------------------------------------------------------|

Pre-Chorus
Guitar 1
   C#m			Asus2	     B		C#m			D  D     A  A
e|----------------------------------------------------------5--5-----0--0----|
B|----------------------------------------------------------7--7-----2--2----|
G|-----6-------6---------2---------4---------6-------6------7--7-----2--2----|
D|---6---6---6---6-----2---2-----4---4-----6---6---6---6----7--7-----2--2----|
A|-4-------4---------0---------2---------4-------4----------5--5-----0--0----|
E|----------------------------------------------------------5--5-----0--0----|

Chorus
Guitar 1
E	B	A
Guitar 3
e|---------------------------------------------------------------------------|
B|-10---10-10-10-9-9~--------------------------------------------------------|
G|---------------------------------------------------------------------------|
D|---------------------------------------------------------------------------|
A|---------------------------------------------------------------------------|
E|---------------------------------------------------------------------------|

Chorus (con't.d)
Guitar 1
E	C#m	B
Guitar 3
e|---------------------------------------------------------------------------|
B|-10---10-10-10-9-9~--------------------------------------------------------|
G|---------------------------------------------------------------------------|
D|---------------------------------------------------------------------------|
A|---------------------------------------------------------------------------|
E|---------------------------------------------------------------------------|

Chorus (con't.d)
Guitar 1
E	B	A
Guitar 3
e|---------------------------------------------------------------------------|
B|-10---10-10-10-9-9~--------------------------------------------------------|
G|---------------------------------------------------------------------------|
D|---------------------------------------------------------------------------|
A|---------------------------------------------------------------------------|
E|---------------------------------------------------------------------------|

Chorus (con't.d)
Guitar 1
E		C#m		B
Guitar 3
e|---------------------------------------------------------------------------|
B|-10---10-10-10-9-9~--------------------------------------------------------|
G|---------------------------------------------------------------------------|
D|---------------------------------------------------------------------------|
A|---------------------------------------------------------------------------|
E|---------------------------------------------------------------------------|

Bridge
Guitar 1
   C#m			Asus2	     B		C#m			D  D     A  A
e|----------------------------------------------------------5--5-----0--0----|
B|----------------------------------------------------------7--7-----2--2----|
G|-----6-------6---------2---------4---------6-------6------7--7-----2--2----|
D|---6---6---6---6-----2---2-----4---4-----6---6---6---6----7--7-----2--2----|
A|-4-------4---------0---------2---------4-------4----------5--5-----0--0----|
E|----------------------------------------------------------5--5-----0--0----|

Bridge (con't.d) 2x
Guitar 1
   E                B                C#m                 Asus2
e|-----0-------0--------------------------------------------------------------|
B|---0---0---0---0-----------------------------------------------------0------|
G|------------------------4-------4-----------6-------6------------2-----2---2|
D|-2-------2------------4---4---4---4-------6---6---6---6--------2---2-----2--|
A|--------------------2-------2-----------4-------4------------0--------------|
E|----------------------------------------------------------------------------|
Guitar 2
e|-0~-7~-12~-7~-0~-7~------------------------0~-12~-7~-0~-12~----------------|
B|---------------------------------------------------------------------------|
G|----------------------------------------6~---------------------------------|
D|---------------------------------------------------------------------------|
A|---------------------------------------------------------------------------|
E|---------------------------------------------------------------------------|
Guitar 3
e|---------------------------------------------------------------------------|
B|-10---10-10-10-9-9~---7~---10---10-10-10-9-9~------------------------------|
G|---------------------------------------------------------------------------|
D|---------------------------------------------------------------------------|
A|---------------------------------------------------------------------------|
E|---------------------------------------------------------------------------|

Verse 3
Guitar 1
   E                B                C#m                 Asus2
e|-----0-------0--------------------------------------------------------------|
B|---0---0---0---0-----------------------------------------------------0------|
G|------------------------4-------4-----------6-------6------------2-----2---2|
D|-2-------2------------4---4---4---4-------6---6---6---6--------2---2-----2--|  
A|--------------------2-------2-----------4-------4------------0--------------|
E|----------------------------------------------------------------------------|
											    
Verse 3 (con't.d)
Guitar 1
   E                B                C#m                 Asus2
e|-----0-------0------------------------------------------------------------0-|
B|---0---0---0---0--------------------------------------------------0---------|
G|-----------------------4-------4----------6-------6-----------2-----2---2---|
D|-2-------2-----------4---4---4---4------6---6---6---6-------2---2-----2-----|  
A|-------------------2-------2----------4-------4-----------0-----------------|
E|----------------------------------------------------------------------------|
Guitar 3
e|---------------------------------------------------------------------------|
B|-10---10-10-10-9-9~--------------------------------------------------------|
G|---------------------------------------------------------------------------|
D|---------------------------------------------------------------------------|
A|---------------------------------------------------------------------------|
E|---------------------------------------------------------------------------|


Chorus
Guitar 1
E	B	A
Guitar 3
e|---------------------------------------------------------------------------|
B|-10---10-10-10-9-9~--------------------------------------------------------|
G|---------------------------------------------------------------------------|
D|---------------------------------------------------------------------------|
A|---------------------------------------------------------------------------|
E|---------------------------------------------------------------------------|

Chorus (con't.d)
Guitar 1
E	C#m	B
Guitar 3
e|---------------------------------------------------------------------------|
B|-10---10-10-10-9-9~--------------------------------------------------------|
G|---------------------------------------------------------------------------|
D|---------------------------------------------------------------------------|
A|---------------------------------------------------------------------------|
E|---------------------------------------------------------------------------|

Chorus (con't.d)
Guitar 1
E	B	A
Guitar 3
e|---------------------------------------------------------------------------|
B|-10---10-10-10-9-9~--------------------------------------------------------|
G|---------------------------------------------------------------------------|
D|---------------------------------------------------------------------------|
A|---------------------------------------------------------------------------|
E|---------------------------------------------------------------------------|

Chorus (con't.d)
Guitar 1
E		C#m		B
Guitar 3
e|---------------------------------------------------------------------------|
B|-10---10-10-10-9-9~--------------------------------------------------------|
G|---------------------------------------------------------------------------|
D|---------------------------------------------------------------------------|
A|---------------------------------------------------------------------------|
E|---------------------------------------------------------------------------|

Repeat chorus as many times as you want.In actual song they repeat twice before
it starts to fade in the middle of the 3rd chorus.

| /  slide up
| \  slide down
| h  hammer-on
| p  pull-off
| ~  vibrato
| +  harmonic
| x  Mute note
===============================================================================





Comments


Popular Savage Garden tabs & chords
Best Thing Bass Tabs
Crash And Burn Chords
I Don't Know You Anymore Chords
Promises Chords
To The Moon And Back 4 Chords
Two Beds And A Coffee Machine Chords
Santa Monica Tabs
Truly Madly Deeply Tabs
Animal Song Ukulele
Promises Ukulele


Song lyrics



↑ Back to top | Tablatures and chords are parodies/interpretations of the original songs. You may use it for private study, scholarship, research or language learning purposes only
© 2014 AZChords.com Contact us | Privacy policy | DMCA | Add/correct tabs | Request tabs | Top 50 tabs