» » »

Sausage, Toyz 1988 Bass tabs (ver.1)

Artists:  A B C D E F G H I J K L M N O P Q R S T U V W X Y Z # 

Toyz 1988 Bass tabs (ver.1)

Sausage Tabs
Rating:
0/5 (0 votes)
Toyz 1988 lessons Tabs too difficult? Try these video lessons and learn fast
                Here it is-the whole song, entirely by ear. I use a 5-string but you can use a 4-string 
if you have a whammy bar.

Intro(tapped) x3            then...  x1
G|-----17------15---|---15--14--13--12-|
D|---16--16--16--16-|-16--15--14--13---|
A|-15------15-------|------------------|
E|------------------|------------------|
Whole thing x2
                 Then... x1
G|-----------------------------------|
D|-----16------14-----14--15--16--17-|
A|---15--15--15--15-15--16--17--18---|
E|-14------14------------------------|

Verse 1     Improv
G|------------|---------|
D|------------|-*19tw---|
A|----x-------|-*19tw---|
E|-5\--0w/-5\-|---------|

Bridge to Chorus
G|-----|
D|-----|
A|-----|
E|-20\-|

Chorus
G|-7-7-x-5-5-x-7-7-x---------|
D|-7-7-x-6-6-x-7-7-----------|
A|-5-5-x-----x-5-5-----------|
E|-------------------2-3-x-2-|

2nd Verse (same as first, I'm just putting the improv)
G|-----------------------------|
D|-19t19t19t19t19t19t19t19t19t-|
A|-19t19t19t19t19t19t19t19t19t-|
E|-----------------------------|
                               Now the delta waters go down, So Cal.
G|-24t24t24t24t24t24t24t24t24t-|-------------------|
D|-24t24t24t24t24t24t24t24t24t-|-------------------|
A|-----------------------------|-19-19-19-19-19-19-|
E|-----------------------------|-------------------|

3rd Verse Improv
G|------------14-14-14-14-14-14-|
D|------------14-14-14-14-14-14-|
A|-------x----------------------|
E|-5\-5\---0w/------------------|

G|----------------------------|----------------|
D|19t19t19t20t20t19t20t20t19t-|---14-----14----|
A|19t19t19t20t20t19t20t20t19t-|-12--12-12--12\-|
E|----------------------------|----------------|

G|-24t24t24t24t24t24t24t24t24t-|
D|-24t24t24t24t24t24t24t24t24t-|
A|-----------------------------|
E|-----------------------------|

G|---24-21--21--21/24----|
D|-23-----23--20/23--23\-|
A|-----------------------|
E|-----------------------|

Final Chorus
G|-7-7-x-5-5-x-7-7-x---------|-8-8-x-6-6-x-8-8-x---------|
D|-7-7-x-6-6-x-7-7-----------|-8-8-x-7-7-x-8-8-----------|
A|-5-5-x-----x-5-5-----------|-6-6-x-----x-6-6-----------|
E|-------------------2-3-x-2-|-------------------3-4-x-3-|

G|-9-9-x-7-7-x-9-9-x--------|
D|-9-9-x-8-8-x-9-9----------|
A|-7-7-x-------7-7----------|
E|------------------4-5-x-4-|

That's pretty much the whole song. It's really frickin' hard at first, but if you listen 
to the song you'll get it.

                     Order- Intro
                            Verse
                           Bridge to Chorus
                            Chorus
                            Verse
                           Bridge to Chorus
                            Chorus
                            Intro
                            Verse
                            Bridge to Chorus
                            Final Chorus
                            Intro
            
Submit corrections

comments powered by Disqus
↑ Back to top | Sausage Bass for Toyz 1988. Lyrics for acoustic guitar and electric guitar. Tablatures and chords are parodies/interpretations of the original songs. You may use it for private study, scholarship, research or language learning purposes only