» » »

Sausage, Temporary Phase Bass tabs (ver.2)

Artists:  A B C D E F G H I J K L M N O P Q R S T U V W X Y Z # 

Temporary Phase Bass tabs (ver.2)

Sausage Tabs
 Rating:
4/5 (4 votes)
Temporary Phase lessons Tabs too difficult? Try these video lessons and learn fast
                I couldn't find a tab with the intro so here ya go! Old, ol' Primus song.

Intro                                     Gradually bend
G|-9\-|-9\--0h12---9*-|-9\-------------191919191919191919-----|
D|----|---------12-9*-|----(pick scratch)---------------------|
A|-7\-|-7\------------|-7\------------------------------------|
E|----|---------------|-----------------------------------12\-|

Verse
G|---5\-----------5-3-----|
D|---5\-----------5-3-----|
A|------------------------|
E|-3----3-3-6-5-3-----0h1-|

Into next verse
G|------|
D|------|
A|------|
E|-3b-0-|

Verse fills                                                      
G|---5\------------5-3------|---5\-----------5--------------|
D|---5\------------5-3----3-|---5\-----------5----3----3----|
A|--------------------------|-------------------------------|
E|-3----3-3-6-5-3-----0h1---|-3----3-3-6-5-3--1-1--1-1--12\-|

G|---------0----0----|
D|-------------------|
A|-----------/12-12\-|
E|-3b-0-/12----------|

Intro again
G|-9\-|-9\--0h12--0h12---|-9\--9-9-9-9-9-9-----|
D|----|---------12----14-|---------------------|
A|-7\-|-7\---------------|-7\------------------|
E|----|------------------|-----------------12\-|

Outro improv (use verse fills, also)
G|----------------10---10-|-5-3-2-0---|
D|-----3----3-------------|-5-3-2-0-3-|
A|-------------8-8--8-8---|---------3-|
E|-1-1--1-1---------------|-----------|
    There's a lotta slappin' and whatnot in there. It's a good song to screw around with. Enjoy!
            
Submit corrections

comments powered by Disqus
↑ Back to top | Sausage Bass for Temporary Phase. Lyrics for acoustic guitar and electric guitar. Tablatures and chords are parodies/interpretations of the original songs. You may use it for private study, scholarship, research or language learning purposes only