» » »

Temporary Phase Bass tabs (ver.1)

Artists:  A B C D E F G H I J K L M N O P Q R S T U V W X Y Z # 

Temporary Phase Bass tabs (ver.1)

Sausage
Rating:
0/5 (0 votes)

Tabs too difficult? Try these video lessons and learn fast.
                G|----5\----------------5\--3p-------|
D|----5\----------------5\-(3)-------|
A|-------------1p-0h-----------------|
E|-3------3--3-------3---------0-1h--|

G|----5\----------------5\--3p-------|
D|----5\----------------5\-(3)-------|
A|-------------1p-0h-----------------|
E|-3------3--3-------3---------0-1h--|
            
Tabs too difficult? Try these video lessons and learn fast.




comments powered by Disqus
↑ Back to top | Tablatures and chords are parodies/interpretations of the original songs. You may use it for private study, scholarship, research or language learning purposes only