» » »

Caution Should Be Used While Driving A Motor Vehicle Or Operating Machinery Bass tabs (ver.1)

Artists:  A B C D E F G H I J K L M N O P Q R S T U V W X Y Z # 

Caution Should Be Used While Driving A Motor Vehicle Or Operating Machinery Bass tabs (ver.1)

Sausage
Rating:
0/5 (0 votes)

Hard to play? Try these video lessons and learn fast.
                -7----------4---4--7--------------4-|
-----4-3h-7---5------------4-3h-7---|
---5-----------------5--------------|
------------------------------------|


-7----------4---4--7--------------4-|
-----4-3h-7---5------------4-3h-7---|
---5-----------------5--------------|
------------------------------------|
            
Hard to play? Try these video lessons and learn fast. | Correct




comments powered by Disqus
↑ Back to top | Tablatures and chords are parodies/interpretations of the original songs. You may use it for private study, scholarship, research or language learning purposes only