» » »

Transcendental Requiem Of Slaves Tabs (ver.1)

Artists:  A B C D E F G H I J K L M N O P Q R S T U V W X Y Z # 

Transcendental Requiem Of Slaves Tabs (ver.1)

Satyricon
Rating:
0/5 (0 votes)

Hard to play? Try these video lessons and learn fast.
                #Title         : Transcendental requiem of slaves

#Composer      : Satyr

#Staff         : Bajo (Satyr)

#Tempo         : 102

#Time Division : 4/4






G |-------------|-------------|-------------|----------|------------|

D |-------------|-------------|-------------|----------|------------|

A |-------------|-2--2--2--2--|-------------|-------2--|-3-2-0------|

E |-0--0--0--0--|-------------|-3--3--3--3--|-2--2-----|-------3-2--|



|-------------|-------------|----------|------------|----------|----------|

|-------------|-------------|----------|------------|----------|----------|

|-2--2--2--2--|-------------|-------2--|-3-2-0------|----------|-0--------|

|-------------|-3--3--3--3--|-2--2-----|-------3-2--|-0--------|----------|



|------------|------------|-------------|-----------|--------------|-----------|

|------------|------------|-------------|-----------|--------------|-----------|

|-0--3-------|----0----0--|-0-0-0--3----|------0----|-0--0-0-0--3--|-----------|

|---------4--|-4----------|-------------|-4---------|--------------|---4----5--|



|-----------|---------|---------|---------|---------|---------|---------|

|-----------|---------|---------|---------|---------|---------|---------|

|-----------|---------|---------|---------|---------|---------|---------|

|-5--5--5-5-|---------|---------|---------|---------|---------|---------|



|-------|-------|-------|-------|-------|--------|--------|--------|--------|

|-------|-------|-------|-------|-------|--------|--------|--------|--------|

|-------|-------|-------|-------|-------|-0------|-0------|-3------|-3------|

|-------|-------|-------|-------|-------|--------|--------|--------|--------|



|--------|--------|----------|--------|--------|---------|-------|-------|

|--------|--------|--------0-|-2------|-2------|---------|-------|-------|

|-2------|-0------|-0----3---|--------|--------|------2--|-------|-------|

|--------|--------|----------|--------|--------|-3-------|-------|-------|



|-------|-------|-------|-------|-------|-------|-----------|--------|

|-------|-------|-------|-------|-------|-------|-----------|--------|

|-------|-------|-------|-------|-------|-------|-2-2-2-2---|----1---|

|-------|-------|-------|-------|-------|-------|-----------|--------|



|-----------|--------|-----------|--------|-----------|--------|-----------|

|-----------|--------|-----------|--------|-----------|--------|-----------|

|-2-2-2-2---|----3---|-2-2-2-2---|----1---|-2-2-2-2---|----3---|-2-2-2-2---|

|-----------|--------|-----------|--------|-----------|--------|-----------|



|--------|-----------|--------|-----------|--------|-----------|--------|

|--------|-----------|--------|-----------|--------|-----------|--------|

|----1---|-2-2-2-2---|----3---|-2-2-2-2---|----1---|-2-2-2-2---|----3---|

|--------|-----------|--------|-----------|--------|-----------|--------|



#End of file.
            
Hard to play? Try these video lessons and learn fast. | Correct




comments powered by Disqus
↑ Back to top | Tablatures and chords are parodies/interpretations of the original songs. You may use it for private study, scholarship, research or language learning purposes only