» » »

Satyricon, The Sign Of The Trident Tabs (ver.1)

Artists:  A B C D E F G H I J K L M N O P Q R S T U V W X Y Z # 

The Sign Of The Trident Tabs (ver.1)

Satyricon Tabs
 Rating:
4/5 (4 votes)
The Sign Of The Trident lessons Tabs too difficult? Try these video lessons and learn fast
1
                (Intro)
-------
Band: Satyricon

Tuning 1 step down, DGCFAD

. = palm mute
h = hammer-on
p = pull-off
\ = slide down
/ = slide up


Here's what I've figured out so far...
based on listening to the song and seeing the band live.

Intro:

Riff 1
|---------------------------------------|
|---------------------------------------|   Listen to song
|---9---9/10-9----9---10/12-10---10--9--|   for rhythm
|---------------------------------------|
|---7---7/8--7----7---8//10-8----8---7--| 
|-0----0--------0----0----------0---0---|
  .    .        .    .          .   .


Riff 2

Gtr1
|--------------------------------------|
|--------------------------------------|   Something like this...
|---9---8-------8------7---------------|   Not sure about the last 3 notes.
|-----9-----------8-----------6---6----|   
|-7-----------6-----6-----------5------|   Let ring slightly.
|--------------------------------------|
|                                      |
Gtr2                                   |
|--------------------------------------|
|--------------------------------------|   Rhythm part, just a guess.
|-9----8---------8-----7---------------|
|-9----8---------8-----7---------------|   At parts, it's just Gtr1.
|-7----6---------6-----5---------------|
|--0-0---0-0-0-0---0-0---0-0-0-0-------|
   . .   . . . .   . .   . . . .

Riff 3
|-----------------------------------------|
|-----------------------------------------|    
|---9---9/10-9----9---10/12-10---10\9---9-| 
|-----------------------------------------|  
|---7---7/8--7----7---8//10-8----8\\7---7-| 
|-0----0--------0----0----------0-----0---|
  .    .        .    .          .     .



Repeat Riff 2


Riff 4: Chorus 
                x3
|-----------------|--------------------|
|-----------------|--------------------|
|-----------------|--------------------|
|---9---9---9/10--|---9-10---9-10-12---|
|---7---7---7/8---|---7-8----7-8--10---|
|-0---0---0-------|-0------0-----------|
  .   .   .         .      .


Repeat Riff 3 1x

Riff 5
|---------------------------------|
|---------------------------------|   
|---9---9/10-9----9----9\8---8\7--| 
|---------------------------------| 
|---7---7/8--7----7----7\6---6\5--| 
|-0----0--------0----0-----0------|
  .    .        .    .     .     


Riff 2
Riff 4


Riff 6
|-------------------------------------|
|-------------------------------------|
|-------------------------------------|  This I'm sure about.
|-------------------------------------|
|-10---11-8------10---11-8------10----|
|-------------8--------------8--------|

|--------------------------------|
|--------------------------------|   
|--------------------------------|   This not so much.
|--------------------------------|
|--------3-----------3-----------|
|-4-1------3---4-1-----3---------|



Riff 7
...to be continued!


That's all I have for now, might finish this later if I get around to it...
            
Submit corrections

comments powered by Disqus
↑ Back to top | Satyricon Tabs for The Sign Of The Trident. Lyrics for acoustic guitar and electric guitar. 1 Tablatures and chords are parodies/interpretations of the original songs. You may use it for private study, scholarship, research or language learning purposes only