» » »

Pentamgram Burns Tabs (ver.1)

Artists:  A B C D E F G H I J K L M N O P Q R S T U V W X Y Z # 

Pentamgram Burns Tabs (ver.1)

Satyricon
Rating:
0/5 (0 votes)

Hard to play? Try these video lessons and learn fast.
                Main riff
                                                       Repeat 8x 
D#]-------0------------------------0----------------------------]
A#]-------0------------------------0----------------------------]
F#]--------------------------------0----------------------------]
C#]-2----------------3--4---2------2--------------3--4-4--------]
G#]-2----------------1--2---2---------------------1--2-2--------]
D#]-0----------3b-1---------0-------------3b--1-----------------]

Second Riff
                                                                 Repeat 3x
D#]-----------------------------------------------------------------------]
A#]-----------------------------------------------------------------------]
F#]-----------------------------------------------------------------------]
C#]-9-9-9-9-9-9-9/13-13-13-10/14-14-14-9-9-9-9-9-9-9/13-13-13-14/13--13---]
G#]-7-7-7-7-7-7-7/11-11-11--8/12-12-12-7-7-7-7-7-7-7/11-11-11-12/11--11---]
D#]-----------------------------------------------------------------------]

Solo
Gtr.1                           Repeat 4x 
D#]-------------------------------------]
A#]-------------------------------------]
F#]-------------------------------------]
C#]-----9-10-9-7---7-6------------------]
G#]---7----------8-----7-8-7-12--12-----]
D#]-0-----------------------------------]

Gtr.2(Harmonized part)
                                Repeat 2x
D#]-------------------------------------]
A#]-----5-6-5-3---3-2-------------------]
F#]---2---------3-----2-3-2--7--7-------]
C#]-------------------------------------]
G#]-------------------------------------]
D#]-0-----------------------------------]

Secon Riff Repeats
End
b= bend
/= slide
            
Hard to play? Try these video lessons and learn fast. | Correct




comments powered by Disqus
↑ Back to top | Tablatures and chords are parodies/interpretations of the original songs. You may use it for private study, scholarship, research or language learning purposes only