» » »

Part Iii Mother North Bass tabs (ver.1)

Artists:  A B C D E F G H I J K L M N O P Q R S T U V W X Y Z # 

Part Iii Mother North Bass tabs (ver.1)

Satyricon
Rating:
0/5 (0 votes)

Hard to play? Try these video lessons and learn fast.
                
Riff 1 X4
G|--------------------------------------------------------------------------
D|--------------------------------------------------------------------------
A|-----------------------------------------2--2--2--2--2—2--2--2--2--2--2--2
E|---0--0--0--0--0--0--0--0--0--0--0--0-------------------------------------

G|-------------------------------------------------------------------------
D|-------------------------------------------------------------------------
A|3--3--3--3--3--3--3--3--3--3--3--3--0--0--0--0--0--0--0--0--0--0--0--0---
E|-------------------------------------------------------------------------

Riff 2 X1
G|----------------------------------------------------------------------------
D|----------------------------------------------------------------------------
A|--0--0--2--2--3--3--5--5--5--5--5--5--0--0--0--0--0--0---------------0--0--2
E|------------------------------------------------------------3--3--3--3--3--3

G|----------------------------------------------------------------------
D|----------------------------------------------------------------------
A|--2--3--3--5--5--5--5--5--5--0--0--0--0--0--0-------------------------
E|----------------------------------------------------3--3--3--3--3--3--

Riff 3 X1
G|----------------------------------------------------------------------------------
D|----------------------------------------------------------------------------------
A|-0--0--0--0--0--0--5--5--5--5--5--5--0--0--0--0--0--0-----------------0--0—0—0—0-0
E|------------------------------------------------------0--0--0--0--0—0-------------

G|-----------------------------------------------------
D|-----------------------------------------------------
A|5--5--5--5--5--5--0--0--0--0--0--0-------------------
E|-------------------------------------0--0--0--0--0--0

Riff 4 X3
G|----------------------------------------------------------------------------------
D|----------------------------------------------------------------------------------
A|-----------------0--0--0--0--0--0--3--3--3--3--3--3--2--2--2--2--2—2--------------
E|0--0--0--0--0--0-----------------------------------------------------0--0—0—0—0--0

G|------------------------------------------------------
D|------------------------------------------------------
A|0--0--0--0--0--0--3--3--3--3--3--3--2--2--2--2--2--2--
E|------------------------------------------------------

Riff 5 X2
G|---------------------------------------------------------------------------------
D|---------------------------------------------------------------------------------
A|--------------------------------------------------------------10---9-------------
E|---0-----------0------------0---------------7---------------------------10-------

Riff 6 X7
G|----------------------------------------------------------------------------------
D|----------------------------------------------------------------------------------
A|---------------------------------------------------------------------------10---9-
E|--0---0---0---0--0---0---0---0---0---0---0---0--7---7---7---6---7--------10-------

Riff 7 X2
G|----------------------------------------------------------------------------------
D|-------------------------------------------------6---7--6-------------------------
A|----------------------6--7--6--0--0--0-------0-----------4--4--4--4--4--4----4---4
E|4----4----4----4----4----------------------4--------------------------------------

G|---------------------------------------------------------------------
D|---------------------------------------------------------------------
A|----------------------------------------------------------3----2----2
E|---5---5---5---5---5---5---5---5---0---0---0---0---0-----------------

Riff 8 X2
G|-------------------------------------------------------------------
D|-------------------------------------------------------------------
A|------------------------0—0--0--0—0--0--0--0--4--4--4--4--4--4—4--4
E|-4--4--4--4--4—4--4--4---------------------------------------------

G|--------------------------------------------
D|--------------------------------------------
A|-------------------------------------3--3--2
E|-5--5--5—5—5--5--5—5-0--0--0--0--0----------

Riff 9 X4
G|----------------------------------------------------------------------------------
D|----------------------------------------------------------------------------------
A|2--2--2--2--2--2--2--2--2--2--2--2--2--2--2--2--2--2--2--2--2--2--2--2------------
E|----------------------------------------------------------------------2--2--2--2-2

G|-----------------------------------------------------
D|----------------------------------------------------2
A|-------------------------------------------5--4—5----
E|-2--2--2--2--2--2--2--2--2--2--2--2--2--2--2---------

Riff 10 X1
G|--------------------------------------------------------------------------
D|--------------------------------------------------------------------------
A|-7--9---7---7---7---7--9---7---7---7---7--9---7---7---7-----3-------------
E|---------------------------------------------------------7---6---6---3---6

G|----------------------------------------------------------------------------------
D|----------------------------------------------------------------------------------
A|---------------------------------------------------------------------------------3
E|-0--2---2---2---2---0--2---2---2---2---0--2---2---2---2---7---6---6------3---6----

Riff 11 X2
G|-------------------------------------------------------------------------------
D|-------------------------------------------------------------------------------
A|-5--7---7---7---7---5--7---7---7---7---5--7---7---7---7------------------------
E|----------------------------------------------------------5---4---4---4---1---1

Riff 12 X2
G|----------------------------------------------------------------------------------
D|----------------------------------------------------------------------------------
A|5--7--7--7--7---5--7---7---7---7---5--7---5---------------------------------------
E|--------------------------------------------8--7----5---4---4---4---1---1--------2

Play order:
Riff 1    4x
Riff 2    1x
Riff 3    1x
Riff 1    2x
Riff 2    1x
Riff 3    1x
Riff 4    3x
Riff 5    2x
Riff 6    7x
Riff 7    2x
Riff 8    2x
Riff 9    4x
Riff 10   1x
            
Hard to play? Try these video lessons and learn fast. | Correct




comments powered by Disqus
↑ Back to top | Tablatures and chords are parodies/interpretations of the original songs. You may use it for private study, scholarship, research or language learning purposes only