>
 >
Part Iii Mother North

Part Iii Mother North Bass Tabs

Satyricon - Part Iii Mother North chords, tabs, tablatures, lyrics

Guitar lessons | Add/correct | Request | Top 50 tabs Artists:  A B C D E F G H I J K L M N O P Q R S T U V W X Y Z 0-9

Part Iii Mother North Bass Tabs – Satyricon

CD, Sheet music, Poster

Do you like Part Iii Mother North? Share with your friends now
Bass Tabs

Riff 1 X4
G|--------------------------------------------------------------------------
D|--------------------------------------------------------------------------
A|-----------------------------------------2--2--2--2--22--2--2--2--2--2--2
E|---0--0--0--0--0--0--0--0--0--0--0--0-------------------------------------

G|-------------------------------------------------------------------------
D|-------------------------------------------------------------------------
A|3--3--3--3--3--3--3--3--3--3--3--3--0--0--0--0--0--0--0--0--0--0--0--0---
E|-------------------------------------------------------------------------

Riff 2 X1
G|----------------------------------------------------------------------------
D|----------------------------------------------------------------------------
A|--0--0--2--2--3--3--5--5--5--5--5--5--0--0--0--0--0--0---------------0--0--2
E|------------------------------------------------------------3--3--3--3--3--3

G|----------------------------------------------------------------------
D|----------------------------------------------------------------------
A|--2--3--3--5--5--5--5--5--5--0--0--0--0--0--0-------------------------
E|----------------------------------------------------3--3--3--3--3--3--

Riff 3 X1
G|----------------------------------------------------------------------------------
D|----------------------------------------------------------------------------------
A|-0--0--0--0--0--0--5--5--5--5--5--5--0--0--0--0--0--0-----------------0--0000-0
E|------------------------------------------------------0--0--0--0--00-------------

G|-----------------------------------------------------
D|-----------------------------------------------------
A|5--5--5--5--5--5--0--0--0--0--0--0-------------------
E|-------------------------------------0--0--0--0--0--0

Riff 4 X3
G|----------------------------------------------------------------------------------
D|----------------------------------------------------------------------------------
A|-----------------0--0--0--0--0--0--3--3--3--3--3--3--2--2--2--2--22--------------
E|0--0--0--0--0--0-----------------------------------------------------0--0000--0

G|------------------------------------------------------
D|------------------------------------------------------
A|0--0--0--0--0--0--3--3--3--3--3--3--2--2--2--2--2--2--
E|------------------------------------------------------

Riff 5 X2
G|---------------------------------------------------------------------------------
D|---------------------------------------------------------------------------------
A|--------------------------------------------------------------10---9-------------
E|---0-----------0------------0---------------7---------------------------10-------

Riff 6 X7
G|----------------------------------------------------------------------------------
D|----------------------------------------------------------------------------------
A|---------------------------------------------------------------------------10---9-
E|--0---0---0---0--0---0---0---0---0---0---0---0--7---7---7---6---7--------10-------

Riff 7 X2
G|----------------------------------------------------------------------------------
D|-------------------------------------------------6---7--6-------------------------
A|----------------------6--7--6--0--0--0-------0-----------4--4--4--4--4--4----4---4
E|4----4----4----4----4----------------------4--------------------------------------

G|---------------------------------------------------------------------
D|---------------------------------------------------------------------
A|----------------------------------------------------------3----2----2
E|---5---5---5---5---5---5---5---5---0---0---0---0---0-----------------

Riff 8 X2
G|-------------------------------------------------------------------
D|-------------------------------------------------------------------
A|------------------------00--0--00--0--0--0--4--4--4--4--4--44--4
E|-4--4--4--4--44--4--4---------------------------------------------

G|--------------------------------------------
D|--------------------------------------------
A|-------------------------------------3--3--2
E|-5--5--555--5--55-0--0--0--0--0----------

Riff 9 X4
G|----------------------------------------------------------------------------------
D|----------------------------------------------------------------------------------
A|2--2--2--2--2--2--2--2--2--2--2--2--2--2--2--2--2--2--2--2--2--2--2--2------------
E|----------------------------------------------------------------------2--2--2--2-2

G|-----------------------------------------------------
D|----------------------------------------------------2
A|-------------------------------------------5--45----
E|-2--2--2--2--2--2--2--2--2--2--2--2--2--2--2---------

Riff 10 X1
G|--------------------------------------------------------------------------
D|--------------------------------------------------------------------------
A|-7--9---7---7---7---7--9---7---7---7---7--9---7---7---7-----3-------------
E|---------------------------------------------------------7---6---6---3---6

G|----------------------------------------------------------------------------------
D|----------------------------------------------------------------------------------
A|---------------------------------------------------------------------------------3
E|-0--2---2---2---2---0--2---2---2---2---0--2---2---2---2---7---6---6------3---6----

Riff 11 X2
G|-------------------------------------------------------------------------------
D|-------------------------------------------------------------------------------
A|-5--7---7---7---7---5--7---7---7---7---5--7---7---7---7------------------------
E|----------------------------------------------------------5---4---4---4---1---1

Riff 12 X2
G|----------------------------------------------------------------------------------
D|----------------------------------------------------------------------------------
A|5--7--7--7--7---5--7---7---7---7---5--7---5---------------------------------------
E|--------------------------------------------8--7----5---4---4---4---1---1--------2

Play order:
Riff 1    4x
Riff 2    1x
Riff 3    1x
Riff 1    2x
Riff 2    1x
Riff 3    1x
Riff 4    3x
Riff 5    2x
Riff 6    7x
Riff 7    2x
Riff 8    2x
Riff 9    4x
Riff 10   1x





Comments


Popular Satyricon tabs & chords
K.I.N.G Bass Tabs
Fuel For Hatred 1 Tabs
In The Mist By The Hills 1 Tabs
Nemesis Divina Tabs
Now Diabolical Intro 1 Tabs
The Dawn Of A New Age Tabs
The Wolfpack Tabs
Transcendental Requiem Tabs
Transcendental Requiem 1 Tabs
Woods To Eternity Tabs


Song lyrics



↑ Back to top | Tablatures and chords are parodies/interpretations of the original songs. You may use it for private study, scholarship, research or language learning purposes only
© 2014 AZChords.com Contact us | Privacy policy | DMCA | Add/correct tabs | Request tabs | Top 50 tabs