» » »

Orgasmatron Tabs (ver.1)

Artists:  A B C D E F G H I J K L M N O P Q R S T U V W X Y Z # 

Orgasmatron Tabs (ver.1)

Satyricon
Rating:
0/5 (0 votes)

Hard to play? Try these video lessons and learn fast.
                
this is how satyricon plays this brutal-ass motorhead song!

normal tuning (e a d g b e)

riff 1                             riff 2
|---------------------------------|-------------------------------|
|---------------------------------|-------------------------------|
|---------------------------------|-------------------------------|
|-9-999-9-9-999-9-9-999-9-9-999-9-|-------------------------------|
|-7-777-7-7-777-7-7-777-7-7-777-7-|-7-77777-77-7-7-7-77777-77-7-7-|
|-0-000-0-0-000-0-0-000-0-0-000-0-|-5-55555-55-5-5-5-55555-55-5-5-|

riff 3                                  riff 4
|--------------------------------------|---------|
|--------------------------------------|---------|
|--------------------------------------|---------|
|-5-5-55-5-5-55-5-55-------------------|-55-77---|
|-3-3-33-3-3-33-3-33-3-3-33-3-3-33-3-3-|-33-55---|
|--------------------1-1-11-1-1-11-1-1-|---------|


structure per verse

riff 1  x2   "i am the one..."
riff 2  x1   "obsequeanca and arogance..."
riff 1  x1   " two thousend years of misery..."
riff 3  x1   "hypocrase made paramound..."
riff 1  x1/2 "my name is called religion,
riff 4  x1   "sadistic sacred whore"

as intro riff 1 is used
and as outro the first half of riff 3 is played with at the end the whole riff.. 
just listen to the song when to play the riffs, it's really easy!

enjoy!
            
Hard to play? Try these video lessons and learn fast. | Correct




comments powered by Disqus
↑ Back to top | Tablatures and chords are parodies/interpretations of the original songs. You may use it for private study, scholarship, research or language learning purposes only