» » »

Satyricon, Now Diabolical Tabs (ver.1)

Artists:  A B C D E F G H I J K L M N O P Q R S T U V W X Y Z # 

Now Diabolical Tabs (ver.1)

Satyricon Tabs
Rating:
0/5 (0 votes)
Hard to play? Try these video lessons and learn fast.
                (Intro)
----------------------------------------------------------------------------
                                   Satyricon
                                 Now Diabolical
----------------------------------------------------------------------------

                       -----------------


 Intro
|---------------------------------|  |---------------------------------|
|---------------------------------|  |---------------------------------|
|---------------------------------|  |--------------4------------------|
|2-2-2-2-2-2-2-2-2-2-2-2-2-2-2-2-2|  |---3----5---5--------------------|
|2-2-2-2-2-2-2-2-2-2-2-2-2-2-2-2-2|  |-5--------6----------------------|
|0-0-0-0-0-0-0-0-0-0-0-0-0-0-0-0-0|  |---------------------------------|

                                      Verse
|---------------------------------|  |---------------------------------|
|---------------------------------|  |---------------------------------|
|---------------------------------|  |---------------------------------|
|-------3--5-2-6-9----------------|  |-2-2-2---------------------------|
|----5-----5-2-6-9----------------|  |-2-2-2--6-6-5-5-4----------------|
|----------3-0-4-7----------------|  |-0-0-0---------------------------|3x


|---------------------------------|  |---------------------------------|
|---------------------------------|  |---------------------------------|
|---------------------------------|  |---------------------------------|
|-2-2-2---------------------------|  |-2-2-2---------------------------|
|-2-2-2--5-5-4-5-7----------------|  |-2-2-2--8-8-7-7-6----------------|
|-0-0-0---------------------------|  |-0-0-0---------------------------|3x


|---------------------------------|
|---------------------------------|
|---------------------------------|                           
|-2-2-2---------------------------|
|-2-2-2--5-5-4-5-7----------------|
|-0-0-0---------------------------|


 Pre-Chorus
|------------------------------------------------|
|------------------------------------------------|
|------------------------------------------------|
|------------------------------------------------|
|------------------------------------------------|
|-10~-10~-10~-10~-10~-10~-10~-10~-10~-10~-10~-10~|



Chorus
|-------------------------------------------|
|-------------------------------------------|
|-------------------------------------------|
|-------------------------------------------|
|-----7-----8-5-0-10-------11-11-11~--------|
|-0-0---0-0----------0-7-0------------------|



|-0----------------------------0-------------------------------------------|
|-0----------------------------0-------------------------------------------|
|-0----------------------------0-------------------------------------------|
|-2----------------------------2-------------------------------------------|
|-2----------2-3-2-1-----------2-------------------------------------------|
|-----------------------------------------2-3-2-1--------------------------|



|--------------------------------------------------------------------------|
|--------------------------------------------------------------------------|
|--------------------------------------------------------------------------|
|-5-----------------5--------------------5----------------5----------------|
|-5-----------------5----------3-2-------5----------------5------6-5-------|
|-3--------3~-------3--------4----3-2----3--------3~------3-----7---6-5-4--|



|--------------------------------------------------------------------------|
|--------------------------------------------------------------------------|
|--------------------------------------------------------------------------|
|-5-----------------5--------------------5----------------5----------------|
|-5-----------------5--------------------5----------------5------3-2-------|
|-3--------3~-------3------0-1-1-2-2-----3--------3~------3-----4---3-2-1--|



|--------------------------------------------------------------------------|
|--------------------------------------------------------------------------|
|--------------------------------------------------------------------------|
|-5-----------------5--------------------5----------------5----------------|
|-5-----------------5--------6-5---------5----------------5----------------|
|-3--------3~-------3------7----6-5-4----3--------3~------3-----0-1-1-2-2--|



|--------------------------------------|
|--------------------------------------|
|--------------------------------------|
|-5-----------------5------------------|
|-5-----------------5----------3-2-----|
|-3--------3~-------3--------4----3-2--|


Verse(4x)

Pre-Chorus(1x)

Chorus(2x)

Pre-Chorus(1x)

Chorus(2x)


(4x)   
|-------------------------------|
|-------------------------------|
|---------------4---------------|
|---3----5---5------------------|
|-5--------6--------------------|
|-------------------------------|



~ =Vibrato
            

comments powered by Disqus
↑ Back to top | Satyricon Tabs for Now Diabolical. Lyrics for acoustic guitar and electric guitar. Tablatures and chords are parodies/interpretations of the original songs. You may use it for private study, scholarship, research or language learning purposes only