>
 >
Nemesis Divina

Nemesis Divina Guitar Tabs

Satyricon - Nemesis Divina chords, tabs, tablatures, lyrics

Guitar lessons | Add/correct | Request | Top 50 tabs Artists:  A B C D E F G H I J K L M N O P Q R S T U V W X Y Z 0-9

Nemesis Divina Guitar Tabs – Satyricon

CD, Sheet music, Poster

Do you like Nemesis Divina? Share with your friends now
Tabs

SATYRICON "NEMESIS DIVINA"
tr = trill

Riff A:	                __________
		       |1.,3.,..7
|-------------------------------------------|
|-------------------------------------------|
|-------------------------------------------|
|-----------3-3333-333------------5-5555-555|
|2-2222-222-1-1111-111-2-2222-222-3-3333-333|
|0-0000-000------------0-0000-000-----------|
____________________________
|2.,4,..8
----------------------------|
----------------------------|
----------------------------|
2222222222222222111111------|
----------------------111111|
----------------------------|
		  (End Riff A)

Lick:	     Play 4X
|------------------|
|------------------|
|------------------|
|9-999-10-9-11-10--|
|7-777-8--7-9--8---|
|------------------|

Intro-lick:
|---------|
|---------|
|---------|
|---5--8--|
|5--3--6--|
|3--------|
						  _________
Riff B:						 |1.,2.,3.
|------------------------------------------------------------|
|------------------------------------------------------------|
|7777777777777777------------77776677666666666666------------|
|5555555555555555----5555888855554455444444444444----55558888|
|----------------555533336666--------------------555533336666|
|----------------3333----------------------------3333--------|

_______
|4.,5.,6
--------------------------------------------|
--------------------------------*-----------|Last time end at
--------------------------------------------| the *
88888888778877775555444444444444----55558888|
66666666556655553333222222222222555533336666|
--------------------------------3333--------|
Riff C:
|---------------------------------
|---------------------------------
|----------------9999999999999999-
|77777777777777777777777777777777-
|5555555555555555-----------------
|---------------------------------
						   Play 4X
--------------------------------------------------------|
--------------------------------------------------------|
1010101012121212999910101010666677777777774455442222----|
8-8-8-8-1010101077778-8-8-8-4444555555555522332200003333|
----------------------------------------------------1111|
--------------------------------------------------------|
					      (End riff C)

Riff A a total of 4X

Riff D:
Guitar one:
|-------------------------------|
|-------------------------------|
|-------------------------------|
|----tr--------------tr---------|
|---7-8------tr-----7-8-----3-6-|
|000----000-7-8-000-----000-1-4-|

Guitar two:
|---------------------------------------|
|---------------------------------------|
|---------------------------------------|
|--------------------------------54-----|
|------77777722222233336666---767--76-7-|
|000000--------------------000----------|
				 ______________
Riff E:				|2.,4.
|-------------------------------| -------------|
|-------------------------------| -------------|
|-------------tr----------------| -------------|
|-----P------6-7--------54------| -------------|
|----7-6-------------767--76-7--| ---76----3-5-|
|000-----000-----000------------| 000---00-1-3-|

Riff F:					Play 4X
|------------------------------------------------|
|-----------------------------------------*------|Last time end at
|-------------------------------------------tr---| the *
|--9-8-9----------------9-8-9---10-12-10-9-9-10--|
|----------10-9-10--6----------------------------|
|0-------0------------0--------------------------|
			  _______________
Riff G:			 |1.,2.,3.,5.,6.,7
|------------------------------------------------------------
|------------------------------------------------------------
|------------------------------------------------------------
|99999999999999999999999911111111111111111111111111111111111-
|7777777777777777777777779-9-9-9-9-9-9-9-9-9-9-9-9-9-9-9-9-9-
|------------------------------------------------------------
	       ________
	      |4.,8.
------------| ----------------------------------------------|
------------| ----------------------------------------------|
------------| ----------------------------------------------|
141414141414| 1111111111114141414141411111111111999999888888|
121212121212| 9-9-9-9-9-91212121212129-9-9-9-9-9777777666666|
------------| ----------------------------------------------|
						  (End Riff G)
Riff H:		   Play 8X
|------------------------|
|------------------------|
|--------------9---------|
|---9----11----7---11--8-|
|---7----9---------9---6-|
|000--000---000--0---0---|

Riff I:			     Play aprox. 11 times (fade)
|------------------------------------------------------|
|------------------------------------------------------|
|--------------------------------------H-P-------------|
|0-000-3-2---0-000-3-5-2--0-000-3-2---3-5-3-2-0---0-2--|
|----------4------------------------4-----------4-----4|
|------------------------------------------------------|

Riff J: (Fade up)
	      __________   _____	   __________
	     |1.,3.,5..25 |2.,6.,10,..22  |4.,8.,12..24
|------------------------| -----------|   -----------|
|------------------------| -----------|   -----------|
|---------------777111111| 7-777-6-666|   -----------|
|9991111117779995559-9-9-| 5-555-4-444|   -----------|
|7779-9-9-555777---------| -----------|   5-5-5-4-4-4|
|------------------------| -----------|   3-3-3-2-2-2|

FADE





Comments


Popular Satyricon tabs & chords
Forhekset Tabs
Fuel For Hatred Tabs
Havoc Vulture Tabs
K.I.N.G 1 Tabs
Mother North Tabs
Possessed Tabs
Rite Of Our Cross Intro Tabs
The Wolfpack Tabs
Tied In Bronze Chains Tabs
Walk The Path Of Sorrow Tabs


Song lyrics



↑ Back to top | Tablatures and chords are parodies/interpretations of the original songs. You may use it for private study, scholarship, research or language learning purposes only
© 2014 AZChords.com Contact us | Privacy policy | DMCA | Add/correct tabs | Request tabs | Top 50 tabs