» » »

Satyricon, Immortality Passion Tabs (ver.1)

Artists:  A B C D E F G H I J K L M N O P Q R S T U V W X Y Z # 

Immortality Passion Tabs (ver.1)

Satyricon Tabs
 Rating:
4/5 (4 votes)
Immortality Passion lessons Tabs too difficult? Try these video lessons and learn fast
                #------------------------------------PLEASE  NOTE----------------------------------------------#

G: Satyricon - Immortality Passion



Band   Satyricon 
 


. - palm mute / - slide up to
 - slide down to ~ - vibrato
h - hammer on p - pull off
, - slight palm mute [] - first time only
" " tremolo note <> - Trill

Suffixes for bend
f - full bend h - half bend
ph - pinched harmonic q - quarter bend
t - tap bend * - see comment
^ - Hold bend r - release bend
x – Staccato ~ - vibrato bend

Tuning E A D G B E


Riff 1                                           
|------------------------------|----------------------|
|------------------------------|----------------------|
|--2--3p---2---3p---2---3p-----|--5---7-----2---------|
|--0--0p---0---0p---0---0p-----|--0---0-----0---------|
|--"--"----"---"----"---"------|--"---"-----"---------|
|------------------------------|----------------------|
                                                              
(2nd ending)
----------------------------------|
----------------------------------| 
--9---5--7----3-------------------| 
--0---0--0----0-------------------|  
--"---"--"----"-------------------|
----------------------------------|
                                x10
Riff 2
|------------------------------|------------------------------|
|------55555-------------------|------------------------------| 
|-------------77777------------|------------------------------| 
|--------------------88888-----|--8-7--5--6-7--8-7--5---------|  
|------------------------------|-----------------------6-7^---|
|--5555------------------------|------------------------------|
                               x3                             x1                              
Fill 1
|----------||--------------------------------------------------------|
|----------||--1---3--0---5--6--3------------------------------------| 
|--0---0---||--2---2--1---4--4--4----2p-0--0p-0------------------0---| 
|--2---1---||--"---"--"---"--"--"----2p-0--1p-0--0p--0--0--1--2--1---|  
|----------||------------------------"--"--"--"--0p--2--1--2--2--"---|
|----------||------------------------------------"---"--"--"--"------|
          x1                                                        x6
Riff 3                                                     Riff 4
|--------------------------------------------------------||------------|
|---------------------------------------3--1--0---1--0---||------------| 
|------------------------------4---5----3--2--2---2--2---||------------| 
|-----------2-------------2----3---3----"--"--"---"--"---||------------|  
|--2---4----2----2---4----2----"---"---------------------||--2---4-----|
|--2---2----"----2---2----"------------------------------||--2---2-----|
   "   "         "   "                                  x7   "   "    x1
 
Riff 5 (Song slows down here)
|--------------------------------------------|
|--------------------------------------------| 
|--0--------------------5------5--7-----7----|
|-----2--4--3--0---3-------7---------8-------|  
|--------------------------------------------|
|--------------------------------------------|

-------------------------------|
-------------------------------|
--5------5---4--------4--------| 
-----7------------6------------| 
-------------------------------|
-------------------------------|

-----------------------------------------------------------|
--5-----5---6-------6--------------------------------------| 
-----5----------8-------7------7---5-----5-----------------| 
---------------------------9----------7------5-------------|  
------------------------------------------------7--5---6---|
-----------------------------------------------------------|
                                                          x6
Acoustic part, then...

Fill 2          Riff 6
|--------------||------------------------------------------|
|--------------||------------------------------------------| 
|--------------||--0---0--0---0---0------------------------| 
|-----2--1--0--||--2---1--2---1---2---5----4---------------|  
|--2--2--1--0--||--"---"--"---"---"---5----4----5----------|
|--0--"--"--"--||---------------------"----"----5----------|
   "          x4                                "        x15
Riff 7
|----------------------------------------------|
|----------------------------------------------| 
|--0--1--2----1--------------------------------| 
|--0--1--2----1---1--4--0---0--0--[0]--1p--0---|  
|--"--"--"----"---0--4--0---1--0--[1]--2p--1---|
|-----------------"--"---"---"--"---"---"--"-=-|
                                              x5                                      
Outro Riffs

Riff 8 
|--------------------------------|
|--------------------------------|  
|--9999----------------77777-----|
|-------10101010--9999-----------|  
|--------------------------------|
|--------------------------------|
                                x6
Riff 9
|----------------------------------------|
|----------------------------------------|
|----------------------------------------|
|----------------------------------------|
|--2222222222222--2222222222222----------|
|--0000000000000--4444444444444----------|
                                        x2
Play Riff 8 x 2

Play Riff 9 x 4 - End.
            
Submit corrections

comments powered by Disqus
↑ Back to top | Satyricon Tabs for Immortality Passion. Lyrics for acoustic guitar and electric guitar. Tablatures and chords are parodies/interpretations of the original songs. You may use it for private study, scholarship, research or language learning purposes only