» » »

Satyricon, Havoc Vulture Tabs (ver.1)

Artists:  A B C D E F G H I J K L M N O P Q R S T U V W X Y Z # 

Havoc Vulture Tabs (ver.1)

Satyricon Tabs
Rating:
0/5 (0 votes)
Havoc Vulture lessons Tabs too difficult? Try these video lessons and learn fast
                Album:Rebel Extravaganza


Key:
AFAP=AS FAST AS POSSIBLE
p=pull-off
/=slide
h-hammer-on
pm=palm mute
...=tremelo
tr=trill
v=vibrato
b=bend
ah=artificial harmonic
()=ring out

Intro Rhythm:
---------------------------
---------------------------
---------------------------
---------------------------
--1-000-1-000-1-000-1-000--
---------------------------
PM. ... . ... . ... . ...

Riff 1:This comes in over the intro then after the pause . It's harder then 
it looks the timing is funny ... so listen closely.
--5555555555555----555555----55555---------
--5555555555555----555555----55555---------
--5555555555555----555555----55555---------
--7777777777777-6--777777-6--77777--6-7-6--
--7777777777777-6--777777-6--77777--6-7-6--
--5555555555555-4--555555-4--55555--4-5-4--

When the vocals come in play Riff 1 AFAP ...

Riif 2a: 4 times . Lots of Vibrato here ...
----------------------
----------------------
----------------------
----5/7-v7----5/7-----
--0---------0-----v6--
----------------------

Riff 2b:Two Times
------------------------------------------
------------------------------------------
--------4-----------------4---------------
--------5--------5--------5-----------2---
----5/7-7----5/7-7----5/7-7-----------0---
--0--------0-----6--0-------0-0h1h2h3-----

Repeat 2a and 2b

Riff 3 Lead:I bend these octaves a little for effect ...
-----------------/13-----15----------
--/13--12----------------------------
----------9--8---/10-v9--12-v11-v10--
--/10--9-----------------------------
----------7--6-----------------------
-------------------------------------

Riff 3 Rythm:
------------------------------
------------------------------
-----------------3------------
--5--4--2--3--/5-4---b5-2--4--
--3--2--2--1--/5-4---b3-2--2--
--3--2--0--1--/3-2---b3-0--2--

Riff 4:Another Variation of 2 ...
---------------------------------------
---------------------------------------
---2/4-5----------------2/4-5----------
---3/5-6----10/11-11----3/5-6---7/3-3--
---5/7-8--7-10/11-11----5/7-8-7-6/2-3--
-0--------0--8/-9--9--0-------0-5/1-1--

Fill:Hold this chord right before the chorus...
--------
--------
--------
--6-----
--4-----
--4-----

Chorus:
---------------------------------------------------
---------------------------------------------------
---------------------------------------------------
----4--7-910--2--5-66----4--7-910-2-55555--/10-9-8--
--2-2--5-7-8--2--3-44--2-2--5-7-8-2-33333---/8-7-6--
--0-----------0--3-44--0----------0-33333---/8-7-6--

Back to riff 3

Riff 5:Yet another Variation... The first arpeggio is picked the second one 
is a sweep .
---2---------------2-----------
-----2-------2------2----------
-------2---2---------2---------
-4-------4------44----4---4-5--
-4--------------44-----4--4-5--
-2--------------22------2-2-3--

Riff 5b: This im not to sure about ... sweeps on both .
---0--------------0----------------------
----0--------------0---------------------
-----0--------------0--------------------
-2----2---3-4---2----2----------3-3/4-4--
-2-----2--1-2---2-----2---2-2h3-3-3/4-4--
-0------0-1-2---0------0--0-0h1-1-1/2-2--

Riff 6:
------------------------------------
------------------------------------
---0--------------0-----------------
---2-----2--------2-----2-/5-2-5-3--
-0---0-1---v1---0---0-1-------------
------------------------------------

Riff 7:
--------------------------
--------------------------
--9--/12-11--9--5-5/8--8--
--9--/12-11--9--5-5/8--8--
--7--/10--9--7--3-3/6--6--
--0----------0------------

Riff 8:
----------------------------------------
----------------------------------------
----------------------------------------
--/8-7-v7-----5/7-v7---/8-7-v7---9/8-8--
-----------0---------0---------0-7/6-6--
----------------------------------------

Fill: Do this on the last ( fourth ) time of riff 8 ...
----------
----------
----------
-9/8-8/9--
-7/6-6/7--
----------

Just do a variattion of riff 8 two times now , no notes are different so I 
wont type it .

Fill:with Satyr speaking over top...
-------------------------
-------------------------
----2--1-----------------
-----------3--2--/3--/6--
-0---------4--4----------
-----------6-------------

Riff 9:
----------------------------------
----------------------------------
----------------------------------
-2-3/10-7-11-10---2-3/10-7--3/10--
-0-1/8--5-9--8----0-1/8--5--1/8---
---1/8--5-9--8------1/8--5--1/8---

Fill:
-----------------------------
-----------------------------
----4-5--8-88----------3-33--
--2-4-4--6-66-------2--4-44--
--0-2-3--6-66-----3----6-66--
----------------5------------

Riff 10:AFAP This is also the outro...
-------------------------
--------7777777-666-555--
-----3--8888888-777-666--
-2--23--8888888-777-666--
-0--11--6666666-555-444--
-------------------------

It refrains the first riff , then the chorus then 9 and 10 .
            
Submit corrections

comments powered by Disqus
↑ Back to top | Satyricon Tabs for Havoc Vulture. Lyrics for acoustic guitar and electric guitar. Tablatures and chords are parodies/interpretations of the original songs. You may use it for private study, scholarship, research or language learning purposes only