» » »

Satyricon, Fuel For Hatred Tabs (ver.3)

Artists:  A B C D E F G H I J K L M N O P Q R S T U V W X Y Z # 

Fuel For Hatred Tabs (ver.3)

Satyricon Tabs
Rating:
3/5 (4 votes)
Fuel For Hatred lessons Tabs too difficult? Try these video lessons and learn fast
                Band:  Satyricon


.  - palm mute           /  - slide up to
\  - slide down to       ~  - vibrato
h  - hammer on           b  - Bend
p  - pull off            Suffixes for bend
t  - tap                 f  - full bend    h - half bend
ph - pinched harmonic    q  - quarter bend t - tap bend
*  - see comment         ^  - Hold bend    r release bend
x  - Stuccatto           ~  - vibrato bend
,  - slight palm mute    () - ghost note, sustained note
"  - tremolo note        <> - Trill

Tunning E A D G B E

D#||--------------------------|-------------------------|
A#||--------------------------|-------------------------|
F#||--------------9--9--9--9--|-------------------------|
C#||--2--2--2--2--9--9--9--9--|--2--2--2--2-------------|
G#||--2--2--2--2--7--7--7--7--|--2--2--2--2--7/-8--8----|
D#||--0--0--0--0--------------|--0--0--0--0-------------|



--------------------------|--------------------------|
--------------------------|--------------------------|
--------------9--9--9--9--|--------------------------|
--2--2--2--2--9--9--9--9--|--2--2--2--2--5/-8--5/-8--|
--2--2--2--2--7--7--7--7--|--2--2--2--2--3/-6--3/-6--|
--0--0--0--0--------------|--0--0--0--0--------------|



|---------------------------|-------------------------|
|---------------------------|-------------------------|
|*--------------9--9--9--9--|-------------------------|
|*--2--2--2--2--9--9--9--9--|--2--2--2--2-------------|
|---2--2--2--2--7--7--7--7--|--2--2--2--2--7/-8--8----|
|---0--0--0--0--------------|--0--0--0--0-------------|


                                                      2x
--------------------------|---------------------------||--------------|
--------------------------|---------------------------||--------------|
--------------9--9--9--9--|--------------------------*||--------------|
--2--2--2--2--9--9--9--9--|--2--2--2--2--5/-8--5/-8--*||--5/-8--5/-8--|
--2--2--2--2--7--7--7--7--|--2--2--2--2--3/-6--3/-6---||--3/-6--3/-6--|
--0--0--0--0--------------|--0--0--0--0---------------||--------------|



------------------------|-----------------------|----------------------|
------------------------|-----------------------|----------------------|
--7/-8--5/-7---------7/-|----8--5/-7---------7/-|----8--5/-7-----------|
--7/-8--5/-7--7------7/-|----8--5/-7--7------7/-|----8--5/-7--7--------|
--5/-6--3/-5--7------5/-|----6--3/-5--7------5/-|----6--3/-5--7--------|
--------------5---------|-------------5---------|-------------5--------|



------------------------------------------------|------------------------|
------------------------------------------------|------------------------|
------------------------------------------------|--7/-8--5/-7---------7/-|
--6----6--6--6--6--6--6----6--6--6--6--6--6--6--|--7/-8--5/-7--7------7/-|
--6----6--6--6--6--6--6----6--6--6--6--6--6--6--|--5/-6--3/-5--7------5/-|
--4----4--4--4--4--4--4----4--4--4--4--4--4--4--|--------------5---------|



-----------------------|----------------------|
-----------------------|----------------------|
----8--5/-7---------7/-|----8--5/-7-----------|
----8--5/-7--7------7/-|----8--5/-7--7--------|
----6--3/-5--7------5/-|----6--3/-5--7--------|
-------------5---------|-------------5--------|



------------------------------------------------|--------------------------|
------------------------------------------------|--------------------------|
------------------------------------------------|--------------------------|
--6----6--6--6--6--6--6----6--6--6--6--6--6--6--|--------------------------|
--6----6--6--6--6--6--6----6--6--6--6--6--6--6--|--------------------------|
--4----4--4--4--4--4--4----4--4--4--4--4--4--4--|--5--5--5--5--5--5--5--5--|



-------------------------|--------------------------|-------------------------|
-------------------------|--------------------------|-------------------------|
-----------8----8--8--8--|--------------------------|-----------8----8--8--8--|
--7--7--7--8----8--8--8--|--------------------------|--7--7--7--8----8--8--8--|
--7--7--7--6----6--6--6--|--------------------------|--7--7--7--6----6--6--6--|
--5--5--5----------------|--5--5--5--5--5--5--5--5--|--5--5--5----------------|



--------------------------|-------------------------|--------------------------|
--------------------------|-------------------------|--------------------------|
--------------------------|-----------8----8--8--8--|--------------------------|
--------------------------|--7--7--7--8----8--8--8--|--------------------------|
--------------------------|--7--7--7--6----6--6--6--|--------------------------|
--5--5--5--5--5--5--5--5--|--5--5--5----------------|--5--5--5--5--5--5--5--5--|



-------------------------|--------------------------|-------------------------|
-------------------------|--------------------------|-------------------------|
-----------8----8--8--8--|--------------------------|-----------8----8--8--8--|
--7--7--7--8----8--8--8--|--------------------------|--7--7--7--8----8--8--8--|
--7--7--7--6----6--6--6--|--------------------------|--7--7--7--6----6--6--6--|
--5--5--5----------------|--5--5--5--5--5--5--5--5--|--5--5--5----------------|



--------------------------|-------------------------|--------------------------|
--------------------------|-------------------------|--------------------------|
--------------------------|-----------8----8--8--8--|--------------------------|
--------------------------|--7--7--7--8----8--8--8--|--------------------------|
--------------------------|--7--7--7--6----6--6--6--|--7/-8-----7/-8-----------|
--5--5--5--5--5--5--5--5--|--5--5--5----------------|--5/-6--0--5/-6--0--0--0--|



-------------------------------|--------------------------|
-------------------------------|--------------------------|
-------------------------------|--------------------------|
-------------------------------|--------------------------|
--10--8--10--11----11--11--11--|--7/-8-----7/-8-----------|
--8---6--8---9-----9---9---9---|--5/-6--0--5/-6--0--0--0--|



-------------------------------|--------------------------|
-------------------------------|--------------------------|
-------------------------------|--------------------------|
-------------------------------|--------------------------|
--10--8--10--11----11--11--11--|--7/-8-----7/-8-----------|
--8---6--8---9-----9---9---9---|--5/-6--0--5/-6--0--0--0--|



-------------------------------|--------------------------|
-------------------------------|--------------------------|
-------------------------------|--------------------------|
-------------------------------|--------------------------|
--10--8--10--11----11--11--11--|--7/-8-----7/-8-----------|
--8---6--8---9-----9---9---9---|--5/-6--0--5/-6--0--0--0--|



-------------------------------|--------------------------|
-------------------------------|--------------------------|
-------------------------------|--------------------------|
-------------------------------|--------------------------|
--10--8--10--11----11--11--11--|--------------------------|
--8---6--8---9-----9---9---9---|--5--5--5--5--5--5--5--5--|



-------------------------|--------------------------|-------------------------|
-------------------------|--------------------------|-------------------------|
-----------8----8--8--8--|--------------------------|-----------8----8--8--8--|
--7--7--7--8----8--8--8--|--------------------------|--7--7--7--8----8--8--8--|
--7--7--7--6----6--6--6--|--------------------------|--7--7--7--6----6--6--6--|
--5--5--5----------------|--5--5--5--5--5--5--5--5--|--5--5--5----------------|



--------------------------|-------------------------|--------------------------|
--------------------------|-------------------------|--------------------------|
--------------------------|-----------8----8--8--8--|--------------------------|
--------------------------|--7--7--7--8----8--8--8--|--------------------------|
--------------------------|--7--7--7--6----6--6--6--|--------------------------|
--5--5--5--5--5--5--5--5--|--5--5--5----------------|--5--5--5--5--5--5--5--5--|



-------------------------|--------------------------|-------------------------|
-------------------------|--------------------------|-------------------------|
-----------8----8--8--8--|--------------------------|-----------8----8--8--8--|
--7--7--7--8----8--8--8--|--------------------------|--7--7--7--8----8--8--8--|
--7--7--7--6----6--6--6--|--------------------------|--7--7--7--6----6--6--6--|
--5--5--5----------------|--5--5--5--5--5--5--5--5--|--5--5--5----------------|



--------------------------|-------------------------|--------------------------|
--------------------------|-------------------------|--------------------------|
--------------------------|-----------8----8--8--8--|--------------------------|
--------------------------|--7--7--7--8----8--8--8--|--------------------------|
--------------------------|--7--7--7--6----6--6--6--|--------------------------|
--5--5--5--5--5--5--5--5--|--5--5--5----------------|--5--5--5--5--5--5--5--5--|



-------------------------|--------------------------|-------------------------|
-------------------------|--------------------------|-------------------------|
-----------8----8--8--8--|--------------------------|-----------8----8--8--8--|
--7--7--7--8----8--8--8--|--------------------------|--7--7--7--8----8--8--8--|
--7--7--7--6----6--6--6--|--------------------------|--7--7--7--6----6--6--6--|
--5--5--5----------------|--5--5--5--5--5--5--5--5--|--5--5--5----------------|



--------------------------|-------------------------------|
--------------------------|-------------------------------|
--------------------------|-------------------------------|
--------------------------|-------------------------------|
--7/-8-----7/-8-----------|--10--8--10--11----11--11--11--|
--5/-6--0--5/-6--0--0--0--|--8---6--8---9-----9---9---9---|



--------------------------|-------------------------------|
--------------------------|-------------------------------|
--------------------------|-------------------------------|
--------------------------|-------------------------------|
--7/-8-----7/-8-----------|--10--8--10--11----11--11--11--|
--5/-6--0--5/-6--0--0--0--|--8---6--8---9-----9---9---9---|



--------------------------|-------------------------------|
--------------------------|-------------------------------|
--------------------------|-------------------------------|
--------------------------|-------------------------------|
--7/-8-----7/-8-----------|--10--8--10--11----11--11--11--|
--5/-6--0--5/-6--0--0--0--|--8---6--8---9-----9---9---9---|



--------------------------|-------------------------------|
--------------------------|-------------------------------|
--------------------------|-------------------------------|
--------------------------|-------------------------------|
--7/-8-----7/-8-----------|--10--8--10--11----11--11--11--|
--5/-6--0--5/-6--0--0--0--|--8---6--8---9-----9---9---9---|



--------------------------|-------------------------|--------------------------|
--------------------------|-------------------------|--------------------------|
--------------------------|-----------8----8--8--8--|--------------------------|
--------------------------|--7--7--7--8----8--8--8--|--------------------------|
--------------------------|--7--7--7--6----6--6--6--|--------------------------|
--5--5--5--5--5--5--5--5--|--5--5--5----------------|--5--5--5--5--5--5--5--5--|



-------------------------|--------------------------|-------------------------|
-------------------------|--------------------------|-------------------------|
-----------8----8--8--8--|--------------------------|-----------8----8--8--8--|
--7--7--7--8----8--8--8--|--------------------------|--7--7--7--8----8--8--8--|
--7--7--7--6----6--6--6--|--------------------------|--7--7--7--6----6--6--6--|
--5--5--5----------------|--5--5--5--5--5--5--5--5--|--5--5--5----------------|



--------------------------|-------------------------|--------------------------|
--------------------------|-------------------------|--------------------------|
--------------------------|-----------8----8--8--8--|--------------------------|
--------------------------|--7--7--7--8----8--8--8--|--------------------------|
--------------------------|--7--7--7--6----6--6--6--|--------------------------|
--5--5--5--5--5--5--5--5--|--5--5--5----------------|--5--5--5--5--5--5--5--5--|



-------------------------|--------------------------|-------------------------|
-------------------------|--------------------------|-------------------------|
-----------8----8--8--8--|--------------------------|-----------8----8--8--8--|
--7--7--7--8----8--8--8--|--------------------------|--7--7--7--8----8--8--8--|
--7--7--7--6----6--6--6--|--------------------------|--7--7--7--6----6--6--6--|
--5--5--5----------------|--5--5--5--5--5--5--5--5--|--5--5--5----------------|



--------------------------|-------------------------|--------------------------|
--------------------------|-------------------------|--------------------------|
--------------------------|-----------8----8--8--8--|--------------------------|
--------------------------|--7--7--7--8----8--8--8--|--------------------------|
--------------------------|--7--7--7--6----6--6--6--|--------------------------|
--5--5--5--5--5--5--5--5--|--5--5--5----------------|--5--5--5--5--5--5--5--5--|



-------------------------|
-------------------------|
-----------8----8--8--8--|
--7--7--7--8----8--8--8--|
--7--7--7--6----6--6--6--|
--5--5--5----------------|



----------------------------------------------------------|
----------------------------------------------------------|
----------------------------------------------------------|
----------------------------------------------------------|
----------------------------------------------------------|
--0--------5/6/7/8/9/10/11/12-0--------5/6/7/8/9/10/11/12-|



------------------------------------------------|
------------------------------------------------|
------------------------------------------------|
------------------------------------------------|
------------------------------------------------|
--0--------5/6/7/8/9/10/11/12-0--------6~-------|



----------------------------------------------------------|
----------------------------------------------------------|
----------------------------------------------------------|
----------------------------------------------------------|
----------------------------------------------------------|
--0--------5/6/7/8/9/10/11/12-0--------5/6/7/8/9/10/11/12-|



------------------------------------------------|
------------------------------------------------|
------------------------------------------------|
------------------------------------------------|
------------------------------------------------|
--0--------5/6/7/8/9/10/11/12-0--------6b-------|



----------------------------------------------------------|
----------------------------------------------------------|
----------------------------------------------------------|
----------------------------------------------------------|
----------------------------------------------------------|
--0--------5/6/7/8/9/10/11/12-0--------5/6/7/8/9/10/11/12-|



------------------------------------------------|
------------------------------------------------|
------------------------------------------------|
------------------------------------------------|
------------------------------------------------|
--0--------5/6/7/8/9/10/11/12-0--------6~-------|



----------------------------------------------------------|
----------------------------------------------------------|
----------------------------------------------------------|
----------------------------------------------------------|
----------------------------------------------------------|
--0--------5/6/7/8/9/10/11/12-0--------5/6/7/8/9/10/11/12-|



------------------------------------------------|
------------------------------------------------|
------------------------------------------------|
------------------------------------------------|
------------------------------------------------|
--0--------5/6/7/8/9/10/11/12-0--------6b-------|



----------------------------------------------------------|
----------------------------------------------------------|
----------------------------------------------------------|
----------------------------------------------------------|
----------------------------------------------------------|
--0--------5/6/7/8/9/10/11/12-0--------5/6/7/8/9/10/11/12-|



------------------------------------------------|
------------------------------------------------|
------------------------------------------------|
------------------------------------------------|
------------------------------------------------|
--0--------5/6/7/8/9/10/11/12-0--------6~-------|



----------------------------------------------------------|
----------------------------------------------------------|
----------------------------------------------------------|
----------------------------------------------------------|
----------------------------------------------------------|
--0--------5/6/7/8/9/10/11/12-0--------5/6/7/8/9/10/11/12-|



------------------------------------------------|------------------------|
------------------------------------------------|------------------------|
------------------------------------------------|--7/-8--5/-7---------7/-|
------------------------------------------------|--7/-8--5/-7--7------7/-|
------------------------------------------------|--5/-6--3/-5--7------5/-|
--0--------5/6/7/8/9/10/11/12-0--------6b-------|--------------5---------|



-----------------------|----------------------|
-----------------------|----------------------|
----8--5/-7---------7/-|----8--5/-7-----------|
----8--5/-7--7------7/-|----8--5/-7--7--------|
----6--3/-5--7------5/-|----6--3/-5--7--------|
-------------5---------|-------------5--------|



------------------------------------------------|------------------------|
------------------------------------------------|------------------------|
------------------------------------------------|--7/-8--5/-7---------7/-|
--6----6--6--6--6--6--6----6--6--6--6--6--6--6--|--7/-8--5/-7--7------7/-|
--6----6--6--6--6--6--6----6--6--6--6--6--6--6--|--5/-6--3/-5--7------5/-|
--4----4--4--4--4--4--4----4--4--4--4--4--4--4--|--------------5---------|



-----------------------|----------------------|
-----------------------|----------------------|
----8--5/-7---------7/-|----8--5/-7-----------|
----8--5/-7--7------7/-|----8--5/-7--7--------|
----6--3/-5--7------5/-|----6--3/-5--7--------|
-------------5---------|-------------5--------|



------------------------------------------------|--------------------------|
------------------------------------------------|--------------------------|
------------------------------------------------|--------------------------|
--6----6--6--6--6--6--6----6--6--6--6--6--6--6--|--------------------------|
--6----6--6--6--6--6--6----6--6--6--6--6--6--6--|--------------------------|
--4----4--4--4--4--4--4----4--4--4--4--4--4--4--|--5--5--5--5--5--5--5--5--|



-------------------------|--------------------------|-------------------------|
-------------------------|--------------------------|-------------------------|
-----------8----8--8--8--|--------------------------|-----------8----8--8--8--|
--7--7--7--8----8--8--8--|--------------------------|--7--7--7--8----8--8--8--|
--7--7--7--6----6--6--6--|--------------------------|--7--7--7--6----6--6--6--|
--5--5--5----------------|--5--5--5--5--5--5--5--5--|--5--5--5----------------|



--------------------------|-------------------------|--------------------------|
--------------------------|-------------------------|--------------------------|
--------------------------|-----------8----8--8--8--|--------------------------|
--------------------------|--7--7--7--8----8--8--8--|--------------------------|
--------------------------|--7--7--7--6----6--6--6--|--------------------------|
--5--5--5--5--5--5--5--5--|--5--5--5----------------|--5--5--5--5--5--5--5--5--|



-------------------------|--------------------------|-------------------------|
-------------------------|--------------------------|-------------------------|
-----------8----8--8--8--|--------------------------|-----------8----8--8--8--|
--7--7--7--8----8--8--8--|--------------------------|--7--7--7--8----8--8--8--|
--7--7--7--6----6--6--6--|--------------------------|--7--7--7--6----6--6--6--|
--5--5--5----------------|--5--5--5--5--5--5--5--5--|--5--5--5----------------|



--------------------------|-------------------------|--------------------------|
--------------------------|-------------------------|--------------------------|
--------------------------|-----------8----8--8--8--|--------------------------|
--------------------------|--7--7--7--8----8--8--8--|--------------------------|
--------------------------|--7--7--7--6----6--6--6--|--------------------------|
--5--5--5--5--5--5--5--5--|--5--5--5----------------|--5--5--5--5--5--5--5--5--|



-------------------------|--------------------------|-------------------------|
-------------------------|--------------------------|-------------------------|
-----------8----8--8--8--|--------------------------|-----------8----8--8--8--|
--7--7--7--8----8--8--8--|--------------------------|--7--7--7--8----8--8--8--|
--7--7--7--6----6--6--6--|--------------------------|--7--7--7--6----6--6--6--|
--5--5--5----------------|--5--5--5--5--5--5--5--5--|--5--5--5----------------|



--------------------------|-------------------------------|
--------------------------|-------------------------------|
--------------------------|-------------------------------|
--------------------------|-------------------------------|
--7/-8-----7/-8-----------|--10--8--10--11----11--11--11--|
--5/-6--0--5/-6--0--0--0--|--8---6--8---9-----9---9---9---|



--------------------------|-------------------------------|
--------------------------|-------------------------------|
--------------------------|-------------------------------|
--------------------------|-------------------------------|
--7/-8-----7/-8-----------|--10--8--10--11----11--11--11--|
--5/-6--0--5/-6--0--0--0--|--8---6--8---9-----9---9---9---|



--------------------------|-------------------------------|
--------------------------|-------------------------------|
--------------------------|-------------------------------|
--------------------------|-------------------------------|
--7/-8-----7/-8-----------|--10--8--10--11----11--11--11--|
--5/-6--0--5/-6--0--0--0--|--8---6--8---9-----9---9---9---|



--------------------------|-------------------------||
--------------------------|-------------------------||
--------------------------|-------------------------||
--------------------------|-------------------------||
--7/-8-----7/-8-----------|--10--8--10--11----------||
--5/-6--0--5/-6--0--0--0--|--8---6--8---9-----------||
            
Submit corrections

comments powered by Disqus
↑ Back to top | Satyricon Tabs for Fuel For Hatred. Lyrics for acoustic guitar and electric guitar. Tablatures and chords are parodies/interpretations of the original songs. You may use it for private study, scholarship, research or language learning purposes only