>
 >
Filthgrinder

Filthgrinder Guitar Tabs

Satyricon - Filthgrinder chords, tabs, tablatures, lyrics

Guitar lessons | Add/correct | Request | Top 50 tabs Artists:  A B C D E F G H I J K L M N O P Q R S T U V W X Y Z 0-9

Filthgrinder Guitar Tabs – Satyricon

CD, Sheet music, Poster

Do you like Filthgrinder? Share with your friends now
Tabs
Album:Rebel Extravaganza

This is a confusing piece . Very chaotic . There's so many once only 
fills that you can get lost ... once you memorize
the song though you will see why they are there , It's actually a rather 
standard structure , just intelligently tweaked with
little nuances to give It a unique feel I guess . Take extra care to go slow 
and read the counts on each...

Key:
v=vibrato
p=pull-off
h=hammer-on
/=slide
pm=palm mute
B=bend
tr=trill

Riff 1x4
--------------------------
--------------------------
--------------------9-10--
-----------------2--9-10--
-----------------2--7--8--
--0000-11-0--B2--0--------
pm.... .. .
Fill 1x1
---------------------------------------------
---------------------------------------------
------7-6tr7-----8-7tr7-----7-6tr7------6----
---------------------------------------------
----5----------6----------5-----------5---5--
--0----------0----------0-----------0--------
pm. . . .
Repeat Both again and then just riff one again...

Fill 2x4 -I love this part
-------------0---------0-------------------
-------------------------------------------
---------3-----------------8-888-88-888-9--
--2--2-----2----2--2-------8-888-88-888-9--
--2----2--------2----2-----6-666-66-666-7--
--0-------------0----------6-666-66-666-7--

Riff 2ax4 - Do downward sweeps here
--------0----------
----------0--------
------------0------
--5--9--------9----
--5--9----------9--
--3--7-------------

Riff 2bx4
--------0----------
----------0--------
--3--7------7------
--3--7--------7----
--1--5----------5--
-------------------

Do them both right after the other four times

Fill 3x4
----------
----------
----------
--2---5---
--2---5---
--0---3---

Riff 3ax4
---5-55-55-5-5---------
---6-66-66-6-6---------
---7-77-77-7-7---6--8--
---7-77-77-7-7---6--8--
---5-55-55-5-5---4--6--
-----------------4-----

Riff 3bx4
---------------------------------------------------------
---------------------------------------------------------
---4444--33------4444--33--555--4444-33-----333----------
---4444--33--555-4444--33--555--4444-33-555-333-555-444--
---2222--11--555-2222--11--333--2222-11-555-111-555-444--
-------------333------------------------333-----333-222--

Fill 4x4
--------------
--------------
--9999--------
--9999--8888--
--7777--8888--
--------6666--

Fill 5x4 - This could be off , sounds right to me though ...
------------
------------
--6---------
--6----5-5--
--4----5-5--
--4----3-3--

Repeat Riff 3a and 3b again twice

Riff 4x4
---0----------------------
----0---------------------
-----0-----------------5--
-2----2---4-2-3-4--2---5--
-2-----2--4-2-3-4--2---3--
-0--------2-0-1-2--0---3--

Repeat Fill 3 with two open E's

Riff 5 x4-Use a sinle E note if you think It sounds better for the slide 
part ( instead of the octave)
---------------------------
---------------------------
--8-------/9-----10----10--
--8--------------10----10--
--6--777--/7-777--8-88--8--
--0--000-----000----00-----
pm ... ... ..
Riff 6 x4
----------------------------
----------------------------
----------------------/8-9--
--2-------3-6-3-2-----------
--2--222--3-6-3-2-222-/6-7--
--0--000--1-4-1-0-000-------
pm ... ...

Do all of these as they are listed . Two of each , in sequential order . Do 
the whole part twice.

Riff 7a x2
--777777777-666-777777777-8-8-8---
--888888888-777-888888888-9-9-9---
--999999999-888-999999999-101010--
--999999999-888-999999999-101010--
--777777777-666-777777777-8-8-8---
----------------------------------

Riff 7b x2
--9-9-9-9-9-101010--9-9-9-9-9-8-8-8--777--
-1010101010-111111-1010101010-9-9-9--888--
-1111111111-121212-1111111111-101010-999--
-1111111111-121212-1111111111-101010-999--
--9-9-9-9-9-101010--9-9-9-9-9-8-8-8--777--
------------------------------------------

Riff 7c
---444444444-555-444444444-333--
---555555555-666-555555555-444--
---666666666-777-666666666-555--
---666666666-777-666666666-555--
---444444444-555-444444444-333--
--------------------------------

Not sure about this one , just sounds like noise ( in a good way of course ) 
.... Play hyper fast and It will sound fine .

Riff 8 x1
-------------0------------0-----------0------------------
-------------0------------0-----------0------------------
--9999999999-9-9999999999-9-999999999-9-99999999--55-88--
--9999999999-9-9999999999-9-999999999-9-99999999--55-88--
--7777777777-7-7777777777-7-777777777-7-77777777--33-66--
--0000000000-0-0000000000-0-000000000-0-00000000--33-66--

Riff 9 x4
----------------------
----------------------
----------------5--8--
-----9----------5--8--
--2--7-6tr7---2-3--6--
--0-----------0-------

Repeat 8 and 9 again

Riff 10a x2 - the slow one
-------------------------
--8-----11-----8--4-4/7--
--9-----12-----9--5-5/8--
--9-----12-----9--5-5/8--
--7-----10-----7--3-3/6--
-------------------------

Riff 10b x2
-------------------------------
--4-4/7--7-7/8--8-8/11--7-7/8--
--5-5/8--8-8/9--9-9/12--8-8/9--
--5-5/8--8-8/9--9-9/12--8-8/9--
--3-3/6--6-6/7--7-7/10--6-6/7--
-------------------------------

Riff 10c x2 The lead part
------------------------------------------
--4-4/7---7-----8-----11-----8----7----8--
--5-5/8------8--9--------12--9------8--9--
--5-5/8---------9------------9---------9--
--3-3/6-6-------7--10--------7--6------7--
------------------------------------------

Do Fill 1 and then riff 1 and that's a wrap

Fuck my hands heart . Mail me anything on your mind , I'm always 
interested in geetar feedback .





Comments


Popular Satyricon tabs & chords
Delirium Tabs
Fuel For Hatred 1 Tabs
In The Mist By The Hills Tabs
In The Mist By The Hills 1 Tabs
Last Man Standing Tabs
Natt Tabs
Tied In Bronze Chains Tabs
To The Mountains Tabs
Vikingland Tabs
With Ravenous Hunger Tabs


Song lyrics



↑ Back to top | Tablatures and chords are parodies/interpretations of the original songs. You may use it for private study, scholarship, research or language learning purposes only
© 2014 AZChords.com Contact us | Privacy policy | DMCA | Add/correct tabs | Request tabs | Top 50 tabs