>
 >
Commando

Commando Guitar Tabs

Satyricon - Commando chords, tabs, tablatures, lyrics

Guitar lessons | Add/correct | Request | Top 50 tabs Artists:  A B C D E F G H I J K L M N O P Q R S T U V W X Y Z 0-9

Commando Guitar Tabs – Satyricon

CD, Sheet music, Poster

Do you like Commando? Share with your friends now
Tabs
tune D

. = palm mute

godd*mn.. finally done:D i think u can convince people that ur playing commando by 
with this tab,
-----------------------------------------------------------------------|
-----------------------------------------------------------------------|
-----------------------------------------------------------------------|
-----------------------------------------------------------------------|
----------1/2-2-----------1/2-2-----------1/2-2-----------2-2-5-5-5-5--|
0-0-0-0-0-------0-0-0-0-0-------0-0-0-0-0-------0-0-0-0-0--------------| x2

----------------------------------------------------------------|
----------------------------------------------------------------|
----------------------------------------------------------------|
----------------------------------------------------------------|
----------1/2-2-----------1/2-2-----------1/2-2-----------5-4-3-|
0-0-0-0-0-------0-0-0-0-0-------0-0-0-0-0-------0-0-0-0-0-3-2-1-|

-----------------------------------------------------------------------|
-----------------------------------------------------------------------|
-----------------------------------------------------------------------|
-----------------------------------------------------------------------|
----------1/2-2-----------1/2-2-----------1/2-2-----------2-2-5-5-5-5--|
0-0-0-0-0-------0-0-0-0-0-------0-0-0-0-0-------0-0-0-0-0--------------| x2

----------------------------------------------------------------|
----------------------------------------------------------------|
----------------------------------------------------------------|
----------------------------------------------------------------|
----------1/2-2-----------1/2-2-----------1/2-2-----------5-4-3-|
0-0-0-0-0-------0-0-0-0-0-------0-0-0-0-0-------0-0-0-0-0-3-2-1-|

------------------------------------|
------------------------------------|
------------------------------------|
5----5/6\5----6/7-5----5/6\5-8\6/9--|
------------------------------------|
3----3/4\3----4/6-3----3/4\3-6\4/7--| x2

----------------------------------|
----------------------------------|
---------4-----3-----------3------|
3/4---4----5-4---3/4---4---1-3-3--|
1/2---2----------1/2---2-----1-1--|
----------------------------------| x4 
it sounds really strange if u do the slide but u have to 2 it really fast then it sounds right.

----------------------------------|
----------------------------------|
----------------------------------|
3/4---4--4-----3-3/4---4---4-4-5--|
1/2---2----5-1---1/2---2-2--------|
---------------------------2-2-3--| x2

--------------------------|
--------------------------|
-------------------3------|
3/3--4---------3/4-1-3-3--|
1/2--2-2-----1-1/2---1-1--|
---------3-0--------------| x2

----------------------------------|
----------------------------------|
----------------------------------|
3/4---4--4-----3-3/4---4---4-4-5--|
1/2---2----5-1---1/2---2-2--------|
---------------------------2-2-3--| x2

-
-
-
-
2
0 < this is the hard part of the song

-------------------------------|
-------------------------------|
-------------------------------|
4/5\4-4-------4/5\4-4-----4-3--|
2/3\2-2-5-3-6-2/3\2-2-6-5-9-8--|
-------------------------------| x2

-------------------------------|
-------------------------------|
-------------------------------|
4--4/5\4--5/7--4--4/5\4-7\5/8--|
-------------------------------|
2--2/3\2--3/5--2--2/3\2-5\3/6--| x2

-------------------------------|
-------------------------------|
-------------------------------|
4--4/5\4--5/7--4--4/5\4-7\5/8--|
4--------------4---------------|
2--2/3\2--3/5--2--2/3\2-5\3/6--| x2

----------------------------------|
----------------------------------|
---------4-----3-----------3------|
3/4---4----5-4---3/4---4---1-3-3--|
1/2---2----------1/2---2-----1-1--|
----------------------------------| x2

--------------------------|
--------------------------|
-------------------3------|
3/3--4---------3/4-1-3-3--|
1/2--2-2-----1-1/2---1-1--|
---------3-0--------------| x2

----------------------------------|
----------------------------------|
----------------------------------|
3/4---4--4-----3-3/4---4---4-4-5--|
1/2---2----5-1---1/2---2-2--------|
---------------------------2-2-3--| x2

-
-
-
-
2
0

-------------------------------|
-------------------------------|
-------------------------------|
4/5\4-4-------4/5\4-4----------|
2/3\2-2-5-3-6-2/3\2-2-6-5-9-8--|
-------------------------------| x2

------------------------------|
------------------------------|
------------------------------|
4--4/5\4--5/7--4--4/5\4-7\5/8-|
------------------------------|
2--2/3\2--3/5--2--2/3\2-5\3---|6 x4 let the last note ring the 4th time u play it

----------------------------------------0--|
----------------------------------------0--|
----------------------------------------0--|
----------------------------------------8--|
----------------------------------------7--|
7--10--9--8---7\6--9-/10-7--10--9--8--6-6--| x2
.  .   .  .              .  .   .  .  .

-------2-----1------------------|
---------3----------------------|
-----------4--------------------|
3/4-4----------3/4-5-4-4-4-4-5--|
1/2------------1/2--------------|
-----------------------2-2-2-3--| x2

-------------------------------|
-------------------------------|
-------------------------------|
4--4/5\4--5/7--4--4/5\4-7\5/8--|
-------------------------------|
2--2/3\2--3/5--2--2/3\2-5\3/6--| x2

-------------------------------|
-------------------------------|
-------------------------------|
4--4/5\4--5/7--4--4/5\4-7\5/8--|
4--------------4---------------|
2--2/3\2--3/5--2--2/3\2-5\3/6--| x2

-----------------------------------------------------------------------|
-----------------------------------------------------------------------|
-----------------------------------------------------------------------|
-----------------------------------------------------------------------|
----------1/2-2-----------1/2-2-----------1/2-2-----------2-2-5-5-5-5--|
0-0-0-0-0-------0-0-0-0-0-------0-0-0-0-0-------0-0-0-0-0--------------| x2

----------------------------------------------------------------|
----------------------------------------------------------------|
----------------------------------------------------------------|
----------------------------------------------------------------|
----------1/2-2-----------1/2-2-----------1/2-2-----------5-4-3-|
0-0-0-0-0-------0-0-0-0-0-------0-0-0-0-0-------0-0-0-0-0-3-2-1-|

-----------------------------------------------------------------------|
-----------------------------------------------------------------------|
-----------------------------------------------------------------------|
-----------------------------------------------------------------------|
----------1/2-2-----------1/2-2-----------1/2-2-----------2-2-5-5-5-5--|
0-0-0-0-0-------0-0-0-0-0-------0-0-0-0-0-------0-0-0-0-0--------------| x2

----------------------------------------------------------------|
----------------------------------------------------------------|
----------------------------------------------------------------|
----------------------------------------------------------------|
----------1/2-2-----------1/2-2-----------1/2-2-----------5-4-3-|
0-0-0-0-0-------0-0-0-0-0-------0-0-0-0-0-------0-0-0-0-0-3-2-1-|





Comments


Popular Satyricon tabs & chords
Dark Castle In The Deep Forest Tabs
Fuel For Hatred 1 Tabs
Last Man Standing Tabs
Pentagram Burns Tabs
Repined Bastard Nation Tabs
Rite Of Our Cross Tabs
Skyggedans Tabs
The King Of The Shadowthrone Tabs
Transcendental Requiem 1 Tabs
Woods To Eternity Tabs


Song lyrics



↑ Back to top | Tablatures and chords are parodies/interpretations of the original songs. You may use it for private study, scholarship, research or language learning purposes only
© 2014 AZChords.com Contact us | Privacy policy | DMCA | Add/correct tabs | Request tabs | Top 50 tabs