>
 >
You Saved My Life (Solo)

You Saved My Life (Solo) Guitar Tabs

Satriani Joe - You Saved My Life (Solo) chords, tabs, tablatures, lyrics

Guitar lessons | Add/correct | Request | Top 50 tabs Artists:  A B C D E F G H I J K L M N O P Q R S T U V W X Y Z 0-9

You Saved My Life (Solo) Guitar Tabs – Satriani Joe

CD, Sheet music, Poster

Do you like You Saved My Life (Solo)? Share with your friends now
Tabs
E||-----------------------|------------------|------------------------|
B||-----------------------|------------------|------------------------|
G||------9--8~-----9------|------------------|--------8r--------------|
D||--------------------11~|------------------|-------------11--9--11--|
A||-----------------------|------------------|------------------------|
E||-----------------------|------------------|------------------------|


                                                                  
----------------------|-----------------------|------------------|
----------------------|-----------------------|------------------|
----------------------|------9--8~-----9------|------------------|
--11~-----9--9~-------|--------------------11~|------------------|
----------------------|-----------------------|------------------|
----------------------|-----------------------|------------------|


                                                                               
----------------------|---------------------------|-------------------------|
----------------------|---------------------------|-------------------------|
------8r--------------|---------------------------|-------------------------|
-----------11--9--11--|--11-------------9/11/9----|------------------9------|
----------------------|--------9/-11~-------------|--------7~-7--11-----11--|
----------------------|---------------------------|-------------------------|


                                                         
---------------------------|----------------------------|
---------------------------|----------------------------|
---------------------------|----------------------------|
--9~---9/11~---------------|----------------------------|
----------------9/11/9--7--|--7/9~------11/12/11--9/-7--|
---------------------------|----------------------------|


                                                                        
--------------------------|-----------------------|--------------------|
--------------------------|-----------------------|--------------------|
--------------------------|------9--8~-----9------|--------------------|
--------------------------|--------------------11~|----------------11--|
--7/9~----9/11--9/11~-----|-----------------------|--------------------|
--------------------------|-----------------------|--------------------|


                                                                              
-----------------------|------------------------|--------------------------|
-----------------------|------------------------|--------12~---10----------|
-------8r--------------|------------------------|------------------13/-11--|
9~----------11--9--11--|--11~-----14--14~-------|--------------------------|
-----------------------|------------------------|--------------------------|
-----------------------|------------------------|--------------------------|


                                                           
-------------------------------|--------------------------|
-------------------------------|--------12~---10----------|
--11/13~------------11h13~-----|------------------13/-11--|
----------11/-14---------------|--------------------------|
-------------------------------|--------------------------|
-------------------------------|--------------------------|


                                                               
----------------------------------|---------------------------|
----------------------------------|---------12~---10----------|
--11/13~--11/13/9~---6-9-6--------|-------------------13/-11--|
---------------------------9-6-11-|--9~-----------------------|
----------------------------------|---------------------------|
----------------------------------|---------------------------|


                                                                              
----------------------------|----------------------|-----------------------|
----------------------------|----------------------|--------------5--5~-7--|
11/13~------------9h11~-----|--13/9~---------------|----------4/6----------|
--------11/-14--------------|----------------------|-----------------------|
----------------------------|----------------------|-----------------------|
----------------------------|----------------------|-----------------------|


                                                                          
---------------------|---------------------------|-----------------------|
--7/5~---------------|---------------12--12--14--|--12h14~---------------|
---------------------|--------9/-13--------------|-----------------------|
---------------------|---------------------------|-----------------------|
---------------------|---------------------------|-----------------------|
---------------------|---------------------------|-----------------------|


                                                         
-----------------12--12--14--|--14b-12--12~---14b-------|
----------12-14--------------|--------------------------|
-----------------------------|--------------------------|
-----------------------------|--------------------------|
-----------------------------|--------------------------|
-----------------------------|--------------------------|


                                                                           
------17b--17-16~---------|--------16----------16------|------------------|
--------------------19~---|--17~-------19~---------17~-|------------------|
--------------------------|----------------------------|------------------|
--------------------------|----------------------------|------------------|
--------------------------|----------------------------|------------------|
--------------------------|----------------------------|------------------|


                                                                         
--------------------------|------------------|------16----------16------|
--------19r---17--16--17--|------------------|----------19~---------17~-|
--------------------------|------------------|--------------------------|
--------------------------|------------------|--------------------------|
--------------------------|------------------|--------------------------|
--------------------------|------------------|--------------------------|


                                                                  
------------------------------------|----------------------------|
--------17h14-----------------------|----------19r---17--16--17--|
--------------16-13-11--------------|----------------------------|
-----------------------14h11--------|----------------------------|
-----------------------------14h11--|----------------------------|
------------------------------------|--14~-----------------------|


                                                                     
------------------14h12-------|-------------------------------------|
--17~-----21------------14h12-|--12/14~-----------------------------|
------------------------------|-------------13--13h11-----11--------|
------------------------------|-----------------------14-----14-11--|
------------------------------|-------------------------------------|
------------------------------|-------------------------------------|


                                                         
--------------------------|-----------------------------|
--------------------------|-----------------------------|
------------16r-----16-14-|--16~---------8-9-------9h11-|
--16~---------------------|------------------11-13------|
--------------------------|-----------------------------|
--------------------------|-----------------------------|


                                                                       
-------------------------------------------|------16----------16------|
-----12h10----------10h9-------------------|----------19~---------17~-|
--13-------13-11-13------11h13-11/13-13~---|--------------------------|
-------------------------------------------|--------------------------|
-------------------------------------------|--------------------------|
-------------------------------------------|--------------------------|


                                                                               
----------------|------------------------------------|----------------------|
----------------|------12-10-9--10-9-------10-12-9h7-|--7~------------------|
----------------|--------------------11-13-----------|----------------------|
----------------|------------------------------------|---------------9/11~--|
----------------|------------------------------------|----------------------|
----------------|------------------------------------|----------------------|





                                                           
--------------------------|-------------------------------|
--------12~---10----------|-------------------------------|
------------------13/-11--|--11/13~------------11h13~-----|
--------------------------|----------11/-14---------------|
--------------------------|-------------------------------|
--------------------------|-------------------------------|


                                                                  
--------------------------|--------------------------------------|
--------12~---10----------|--------------17-16-14----14----------|
------------------13/-11--|--11/13~---------------16----13-11-13-|
--------------------------|--------------------------------------|
--------------------------|--------------------------------------|
--------------------------|--------------------------------------|


                                                               
------------------------------|-------------------------------|
------------12----10----------|-------------------------------|
----------------------13/-11--|--11/13~------------11h13~-----|
--16/14~----------------------|----------11/-14---------------|
------------------------------|-------------------------------|
------------------------------|-------------------------------|


                                                                              
--------------------|--------------------------------|---------------------|
--------------------|--------------------------------|---------------------|
13/9~---------------|------------------------11/13~--|--11h-9~-------------|
--------------------|------9/11--14--14--11----------|---------------------|
--------------------|--------------------------------|---------------------|
--------------------|--------------------------------|---------------------|


                                                      
-----------------------------|-----------------------|
-----------------12--12--14--|--12h14~---------------|
--------9-11/13--------------|-----------------------|
-----------------------------|-----------------------|
-----------------------------|-----------------------|
-----------------------------|-----------------------|


                                                         
-----------------12--12--14--|--14b-12--12~---14b-------|
----------12-14--------------|--------------------------|
-----------------------------|--------------------------|
-----------------------------|--------------------------|
-----------------------------|--------------------------|
-----------------------------|--------------------------|


                                                        
----19~---19----------------|------16----------16------|
--------------19r-17--19b---|----------19~---------17~-|
----------------------------|--------------------------|
----------------------------|--------------------------|
----------------------------|--------------------------|
----------------------------|--------------------------|


                                                                
----------------------------------|----------------------------|
----------17-19-------------------|----------19r---17--16--17--|
----------------16-18-------------|----------------------------|
----------------------16h18-14h16-|--16~-----------------------|
----------------------------------|----------------------------|
----------------------------------|----------------------------|


                                                             
--------------12----12-------|----------16----------16------|
--17~---------12h14-12-------|--------------19~---------17~-|
--------------13----13--11-9-|--11h13~----------------------|
------------------------11-9-|--11h14~----------------------|
-----------------------------|------------------------------|
-----------------------------|------------------------------|


                                                          
------------------------|--------------------------------|
------------17~-17h-14--|--19~-------19r--17-16-17----16-|
------------------------|--------------------------18----|
------------------------|--------------------------------|
------------------------|--------------------------------|
------------------------|--------------------------------|


                                                                              
--------------------------------------------|------------------------------|
---14---------------------------------------|------------------------------|
16----14-16---------------------------------|------------------------------|
------------16-18-16-14-16/18-14~-------14~-|--14~-----9--9/11-14--16/-18--|
----------------------------------14h16-----|------------------------------|
--------------------------------------------|------------------------------|


                                                                         
-----------------------------------|------------------------------------|
-----------------------------------|------------------------------------|
------------14/13------------------|------------------------------------|
--16/18~----------18/16~-16/14--x--|--14/16~-------------14-16/18-16/14-|
-----------------------------------|---------------14-16----------------|
-----------------------------------|------------------------------------|


                                                            
--------------------------------|------16----------16------|
--------------------------------|----------19~---------17~-|
----------16--16/18-16~---16~---|--------------------------|
----16/18-----------------------|--------------------------|
--------------------------------|--------------------------|
--------------------------------|--------------------------|


                                                                
--------------------------|--------------------14--12----------|
--------------12h14-------|----------------------------16/-17--|
--------------13h14-11/9--|--11/13-11/9--11~-------------------|
--------------------13/11-|--13-14-13/11-13~-------------------|
--------------------------|------------------------------------|
--------------------------|------------------------------------|


                                                                     
----------14/16-16~-------|------------------|----------------------|
--17~---------------------|------------------|--------------17---16-|
--------------------------|------------------|----------------------|
--------------------------|------------------|----------------------|
--------------------------|------------------|----------------------|
--------------------------|------------------|----------------------|


                                                                              
---------------------------|-----------------------|--------12-------------|
--12---10h9--9h7--7h5--5h4-|-------------10h9--10--|-----------------------|
---------------------------|-----------------------|--11b---------9~-------|
---------------------------|-----------------------|-----------------------|
---------------------------|-----------------------|-----------------------|
---------------------------|-----------------------|-----------------------|


                                                                         
------------------|---------------------|-------------------------------||
------------------|---------------7-5---|-------------------------------||
------------------|-------------------8-|--6-------------------------4--||
------------------|---------------------|----9-7-6-----------------2----||
------------------|---------------------|----------9-7-6--7~-----2------||
------------------|---------------------|----------------------0--------||





Comments


Popular Satriani Joe tabs & chords
A Piece Of Liquid Bass Tabs
Lights Of Heaven 1 Bass Tabs
Love Thing 1 Bass Tabs
Always With You 1 Tabs
Echo Tabs
Flying In A Blue Dream Tabs
Satch Boogie Tabs
The Power Cosmic 2000 Part 2 Tabs
Turkey Man Tabs
Up In The Sky Tabs


Song lyrics



↑ Back to top | Tablatures and chords are parodies/interpretations of the original songs. You may use it for private study, scholarship, research or language learning purposes only
© 2014 AZChords.com Contact us | Privacy policy | DMCA | Add/correct tabs | Request tabs | Top 50 tabs