>
 >
Until We Say Goodbye

Until We Say Goodbye Guitar Tabs

Satriani Joe - Until We Say Goodbye chords, tabs, tablatures, lyrics

Guitar lessons | Add/correct | Request | Top 50 tabs Artists:  A B C D E F G H I J K L M N O P Q R S T U V W X Y Z 0-9

Until We Say Goodbye Guitar Tabs – Satriani Joe

CD, Sheet music, Poster

Do you like Until We Say Goodbye? Share with your friends now
Tabs
Hi, I took about one hour to do this one, beauty satch tune, I'm
sure there are some mistakes with the arpegios and at 2:08 but 
it sounds similar anyway...
Corrections and those kinda stuff are welcome!

e|---------------------------------------------------------------
B|---------------------------------------------------------------
G|---5---5---7-9--7-5-7-7/9------5---5---7-9----5---5-9-7-9------
D|-7---7---7----------------7--7---7---7------7---7--------------
A|---------------------------------------------------------------
E|---------------------------------------------------------------

e|----------8----------------------------------------------------
B|---8-10-----10-8/10--10/13\10----------------------------------
G|-9------9---------------------12-12/14\----5---5---7-9---------
D|---------------------------------12/14\--7---7---7-------------
A|---------------------------------------------------------------
E|---------------------------------------------------------------


e|-----------------------------------------------------8---------
B|------------------------------------------------8-10---10-10---
G|-6/7-5-7-9----4-4/5\4------------5---5-9-7-9--9----------------
D|-----------7----------5\2-2/5--7---7---------------------------
A|---------------------------------------------------------------
E|---------------------------------------------------------------


e|---------------------------------------------------------------
B|---8---8---8/10------------------------------------------------
G|-9---9---9-------7h9-7h9-7-9--9-10-9h10p9\7--7/9-7\5-7h9-9-7-9-
D|---------------------------------------------------------------
A|---------------------------------------------------------------
E|---------------------------------------------------------------


e|---------------------------------------------------------------
B|---------------------------------------------------------------
G|-10/12-10-9h10p9\7-7/9--7h9-7h9-7-9--------7-7-6---------------
D|-------------------------------------7-7-7-------7-------------
A|---------------------------------------------------------------
E|---------------------------------------------------------------


e|-15-13-12-------------------------------------------------------
B|----------15--12/13\12------------------------------------------
G|-----------------------14\12-12/14------------------------------
D|----------------------------------------------------------------
A|----------------------------------------------------------------
E|----------------------------------------------------------------

   he goes switching between this chords
e|---------------------------20-17-------19-15---------------------
B|-------------------1-3-0---------17----------17------------------
G|-2-2-0-2-0-2-2-----2-2-0------------17----------16-14------------
D|-2-2-0-2-0-2-2-----2-2-2-----------------------------------------
A|-0-0-0-0-0-0-0-----0-0-2-------------------------------12\-------
E|----------------------------------------------------------------

e|----------------------------------------------------------------
B|----------------------------------------------------10h11p10----
G|-10\9\7-5/7--7-9-10-9-7-5-7-7-5-5/7--9h10p9----9h10----------12-
D|--------------------------------------------12------------------
A|----------------------------------------------------------------
E|----------------------------------------------------------------

e|----------10-13-10-12----10----------15-12-----------------------
B|-10h11-13-------------13----11-13-10-------13--------------------
G|----------------------------------------------12-9---------------
D|-----------------------------------------------------------------
A|-----------------------------------------------------------------
E|-----------------------------------------------------------------

e|-----------------------------------------------------------------
B|-----------------------------------------------------13/15-13----
G|---------------------------10----9----------14-12-14-------------
D|------------------------------12---10/12-15----------------------
A|-8-7-8-7-8-10-10/12-10-10----------------------------------------
E|-----------------------------------------------------------------

e|--------------------------13----12-------------------------------
B|-----------------------15----15----15-13-------13-10-----8-------
G|-15\14-12-12/14--12-14-------------------14\12-------7\5---------
D|-----------------------------------------------------------------
A|-----------------------------------------------------------------
E|-----------------------------------------------------------------

e|-----------------------------------------------------------------
B|-----------------------------------------------------------------
G|-5h7p5-----------------------------------------------------------
D|-------5h7p5\3/5\3-2-3-2h3p2p0-----------------5-----5-7---5-7-8-
A|-------------------------------3/5\3/5/7-5-7-8---7-8-----8-------
E|-----------------------------------------------------------------

e|-------------------------------------------------------13-12-----
B|----------------------------------10h11p10----10----13-------15--
G|-----5---5/9-10p9-10p9----9-10-12----------12----12--------------
D|-5-7---7--------------12-----------------------------------------
A|-----------------------------------------------------------------
E|-----------------------------------------------------------------

e|----------12-15-13-12----------------15-12-----------------------
B|-13----13-------------15-13-11-------------13--------------------
G|----12-------------------------14-12----------12\9---------------
D|---------------------------------------------------10------------
A|------------------------------------------------------10-8-7-8---
E|-----------------------------------------------------------------

e|----------------------------------10-----------------------------
B|------------------10--13-10-11-------10----11-10-----------------
G|-------9----------12b----------12-------12-------12-10-9-10h12p10
D|----10---12-10-12------------------------------------------------
A|-10--------------------------------------------------------------
E|-----------------------------------------------------------------


e|--------------------------------------------------13b------------
B|-------------------------------13-----10-13/15-15----------------
D|----------------------------------12b----------------------------
D|-12-10\7---------------------------------------------------------
A|---------10-8-7----8/10-/12-12-----------------------------------
E|----------------10-----------------------------------------------


e|---------------18-13-------17-12-----------------------------------
B|--------13-----------15----------13--------------------------------
G|-----------12b----------14----------12\10-12p9-9----9----9---------
D|-------------------------------------------------12---10---8p7-8p7-
A|-/12-12------------------------------------------------------------
E|-------------------------------------------------------------------


e|-------------------------------------------------------------------
B|-------------------------------------------------------------------
G|-------------------------------------------------------------------
D|-5-7-5\3-5/7-5-----------------------------------------------------
A|-------------------------------------------------------------------
E|-------------------------------------------------------------------

   he goes switching between this chords
e|--------------------------20-17-------19-15---------------------
B|-------------------1-3----------17----------17------------------
G|-2-2-0-2-0-2-2-----2-2-------------17----------16-14------------
D|-2-2-0-2-0-2-2-----2-2------------------------------------------
A|-0-0-0-0-0-0-0-----0-0--------------------------------12\-------
E|----------------------------------------------------------------


e|---------------------------------------------------------------
B|---------------------------------------------------------------
G|---5---5---7-9--7-5-7-7/9------5---5---7-9----5---5-9-7-9------
D|-7---7---7----------------7--7---7---7------7---7--------------
A|---------------------------------------------------------------
E|---------------------------------------------------------------


e|--------8--------10/12\10-8/10\8---------------------------------
B|---8-10---10-10------------------8/10\8--------------------------
G|-9--------------------------------------7/9\7/9-\5---7h9-7h9-7-9-
D|---------------------------------------------------7-------------
A|-----------------------------------------------------------------
E|-----------------------------------------------------------------


e|----------------------------------------------------------------------
B|----------------------------------------------------------------------
G|-9-10-9h10p9\7-7/9-7\5-7h9-7h9-7-9-10/12-10-9h10p9\7-7/9-7h9-7h9-7-9--
D|----------------------------------------------------------------------
A|----------------------------------------------------------------------
E|----------------------------------------------------------------------


e|------------------------------------------------------------------
B|--------------10-8-----------------------------15b-13-15-12/13\12-
G|-------7p6---------9-7------7-------------------------------------
D|-7-7-7-----7-----------10-7---7-10-7------7/10--------------------
A|-------------------------------------10-7-------------------------
E|------------------------------------------------------------------


e|------------------------------------------------------------------
B|-12---------------------------------------------------------------
G|----14\12-14p12-----7h9-9-7-9-10/12-10-9h10p9\7-7/9-7h9-7h9-7-9---
D|----------------14------------------------------------------------
A|------------------------------------------------------------------
E|------------------------------------------------------------------


e|--------------15-13-12-------------------------------------------
B|-----------------------15--12/13\12----------------10------8-----
G|-------7p6--------------------------14\12-12/14--9-9--9--9-9-9---
D|-7-7-7-----7-------------------------------------9-9--9--7-7-7---
A|-----------------------------------------------------------------
E|-----------------------------------------------------------------


e|----------------
B|---10------8----
G|-9-9--9--9-9-9--
D|-9-9--9--7-7-7--
A|----------------
E|----------------





Comments


Popular Satriani Joe tabs & chords
A Piece Of Liquid Bass Tabs
Crystal Planet Bass Tabs
Always With You 1 Tabs
Bamboo Tabs
Crystal Planet Tabs
Gnaahh Tabs
Just Look Up Tabs
Rubina Tabs
Tears In The Rain Tabs
The Forgottenpart1 Tabs


Song lyrics



↑ Back to top | Tablatures and chords are parodies/interpretations of the original songs. You may use it for private study, scholarship, research or language learning purposes only
© 2014 AZChords.com Contact us | Privacy policy | DMCA | Add/correct tabs | Request tabs | Top 50 tabs