>
 >
Time

Time Guitar Tabs

Satriani Joe - Time chords, tabs, tablatures, lyrics

Guitar lessons | Add/correct | Request | Top 50 tabs Artists:  A B C D E F G H I J K L M N O P Q R S T U V W X Y Z 0-9

Time Guitar Tabs – Satriani Joe

CD, Sheet music, Poster

Do you like Time? Share with your friends now
Tabs
Time                                            

E||------------------|------------------|------------------|------------------|
B||------------------|------------------|------------------|------------------|
G||------------------|------------------|------------------|------------------|
D||------------------|------------------|------------------|------------------|
A||------------------|------------------|------------------|------------------|
E||------------------|------------------|------------------|------------------|
                                                                                    
------------------|----------------------|----------------------|------------------|
------------------|------8----7----------|--7----5--------------|------------------|
------------------|--------------9--7----|----------4~---4~-----|------------------|
------------------|----------------------|----------------------|------------------|
------------------|----------------------|----------------------|------------------|
------------------|----------------------|----------------------|------------------|

------------------|----10--10----10----10~---|--10~-------8----7h8p7-5--|
------------------|--------------------------|--------------------------|
------------------|--------------------------|--------------------------|
------------------|--------------------------|--------------------------|
------------------|--------------------------|--------------------------|

-------------------------|---------------------|----------------------------|
--7----12--7------12--7--|--7~-----------7--8--|--10--10--8--7--8--8--7-----|
-------------------------|---------------------|-------------------------9--|
-------------------------|---------------------|----------------------------|
-------------------------|---------------------|----------------------------|
-------------------------|---------------------|----------------------------|

------------------------------|------------------------|--------------------|
--7--7------------------------|------------------------|--------------------|
--------9--7--9--9--9p-7------|------------------------|--------------------|
--------------------------10--|--9~---7--9------10--9--|----9----9----------|
------------------------------|------------------------|--------------------|
------------------------------|------------------------|--------------------|

--------------------------|--------------------------|-------------------------|
----10--10----10----10~---|--10~-------8----7h8p7-5--|--7----12--7------12--7--|
--------------------------|--------------------------|-------------------------|
--------------------------|--------------------------|-------------------------|
--------------------------|--------------------------|-------------------------|
--------------------------|--------------------------|-------------------------|

---------------------|----------------------------|-----------------7--------|
--7~-----------7--8--|--10--10--8--7--8--8--7-----|--7--7--------------------|
---------------------|-------------------------9--|--------9--7--9-----9--7--|
---------------------|----------------------------|--------------------------|
---------------------|----------------------------|--------------------------|
---------------------|----------------------------|--------------------------|

------------------------|--------------------|--------------------------|
------------------------|--------------------|--------------------------|
------------------------|--------------------|--------------------------|
--9~---7--9------10--9--|----9----9----------|------7~-------9----10----|
------------------------|--------------------|--------------------------|
------------------------|--------------------|--------------------------|

---------------------|--------------------------|------------------------|
---------------------|----------------7--8--10--|--12~---13--10~---------|
--7----9--7~---------|--7----9~-----------------|------------------------|
---------------------|--------------------------|------------------------|
---------------------|--------------------------|------------------------|
---------------------|--------------------------|------------------------|

-----------------------------12--|--14~---15--12~-------12/-|----11b-----11~-----11p10p9p|
--10/-3/---12----12~-----15------|--------------------------|----------------------------|
---------------------------------|--------------------------|----------------------------|
---------------------------------|--------------------------|----------------------------|
---------------------------------|--------------------------|----------------------------|
---------------------------------|--------------------------|----------------------------|

--8----12/-5----------|------5p-4--5------5p-4h-5--|--9----10--------------|
----------------------|----------------------------|-----------------------|
----------------------|----------------------------|-----------11~---------|
----------------------|----------------------------|-----------------------|
----------------------|----------------------------|-----------------------|
----------------------|----------------------------|-----------------------|


                                                                                     
--------------------12----14--15--|--15b---------------|----18~-----18--16-14-------|
--------12--15--------------------|--------------------|----------------------16~---|
--11/-----------------------------|--------------------|----------------------------|
----------------------------------|--------------------|----------------------------|
----------------------------------|--------------------|----------------------------|
----------------------------------|--------------------|----------------------------|

----19------19--17-15-------|----20r---------------|----21b---------------|
----------------------17----|----------------------|----------------------|
----------------------------|----------------------|----------------------|
----------------------------|----------------------|----------------------|
----------------------------|----------------------|----------------------|
----------------------------|----------------------|----------------------|

---------------------|-------------------|---------------------|-------------------|
---------------------|-------------------|---------------------|-------------------|
---------------------|-------------------|---------------------|-------------------|
---------------------|-------------------|---------------------|-------------------|
---------------------|-------------------|---------------------|-------------------|
----7----8--------5--|----7--------------|----7----8--------5--|----7--------------|

----------------------|----------------------|--------------------|---------------------|
------8----7----------|--7----5--------------|--------------------|---------------------|
--------------9--7----|----------4~---4~-----|--------------------|---------------------|
----------------------|----------------------|--------------------|---------------------|
----------------------|----------------------|--------------------|---------------x--x--|
----------------------|----------------------|--------0--0--------|--0------------x--x--|

----------------------|-------------------------|--------------------------------|
----------------------|-------------------------|--------------------------------|
----4----5----2----4--|----5----2----4--4p-2----|--2p-0--------------------------|
----------------------|-------------------------|------------2----2p-0-----------|
----------------------|-------------------------|---------------------------2----|
----------------------|-------------------------|--------------------------------|

--------------------------|---------------------------|
--------------------------|----------------------5----|
--------------------------|----4----5--5--4-----------|
--------------------------|---------------------------|
--2--2--0--0--2-----------|---------------------------|
-------------------0------|---------------------------|

-----------------------------------|-----------------------------------10--10--7--|
--5--3------8----8--7----7h-10p-7--|--10--10--7--10--10--7--10--10--7-------------|
-----------------------------------|----------------------------------------------|
-----------------------------------|----------------------------------------------|
-----------------------------------|----------------------------------------------|
-----------------------------------|----------------------------------------------|

--10--7--12--12--7------7~---7--|
--------------------------------|
--------------------------------|
--------------------------------|
--------------------------------|
--------------------------------|

--7-----17-17-17-17-17-17-17-17-17-17-17-17-17-17-17-17-17-17-17-17-17-17-17-17-|
-----0--------------------------------------------------------------------------|

--17-17-17-17-17-15-15-17p15-17-15p14h15~-17p14~-15h17p15p14-15-|

--17p15p14-15p14p12-14p12p10-10-12h-14p12p10-12p10~-8-10p8-8-8-7-|

--8h10p8p7h8-8-7-7-10-8-7-8-12p10p8-------------7h8h10p8p7h8h10h|
------------------------------------12p8p7h8-10-----------------|

--12p8p7-7-7-7-7-5h7h8p7p5----------------7h8h10p8p7p5-|
---------------------------8p5h7p5h7h8h10--------------|
-------------------------------------------------------|
-------------------------------------------------------|
-------------------------------------------------------|
-------------------------------------------------------|

--8p7p5-------------------------------------------------|
--------8p5h7p5-----------------------------------------|
----------------7p5p4h5h7p4h5h7h9p7p5-----------4h5h7p4-|
--------------------------------------7p5p4h5h7---------|
--------------------------------------------------------|
--------------------------------------------------------|
                                                                                      
---------------------------------------|--------------20b---19----|----------19--------|
---------------------------------------|--------------------------|--------------------|
--2h4h5p4p2----------------------------|--------0--0--------------|--------------------|
------------5p2h4h5p4p2----------------|--------0--0--------------|--------------------|
------------------------5p2h5--5~------|--------------------------|--------------------|
------------------------------------0--|--------------------------|--------------------|

----------|------------8p7h8h10h12p10p8h12h14p12--12p-11p10p8p7-|
----------|----8h10h12------------------------------------------|
----------|-----------------------------------------------------|
----------|-----------------------------------------------------|
----------|-----------------------------------------------------|
----------|-----------------------------------------------------|
                                                 
-----------------------------|----------|----------|
-----------------------------|----------|----------|
--9--------------------------|----------|----------|
-----9-----------------------|----------|----------|
--------7---------------0----|----------|----------|
-----------8--7--5-----------|----------|----------|

----16----12-------16----12-------16--16p14p12h|--15--13p12--------------------------|
-------------16p12----------16p12--------------|------------14-----------------------|
-----------------------------------------------|---------------10--10----------------|
-----------------------------------------------|-------------------------------------|
-----------------------------------------------|-----------------------12--10~-------|
-----------------------------------------------|-------------------------------------|

----------|----------|--------------------------------|------------------------------|
----------|----------|--------------------------------|------------------------------|
----------|----------|------11------------------------|------------------------------|
----------|----------|------------12----14------------|------------------------------|
----------|----------|------------------------14--12--|--14~----12-------------------|
----------|----------|--------------------------------|------------14-12-10----10----|
 
----------|--15-8-15-8p7p5-15-8-15-8p7p5-15-8-15-8p7p5-15-8-15-8p7p5-|----------|
----------|----------------------------------------------------------|----------|
----------|----------------------------------------------------------|----------|
----------|----------------------------------------------------------|----------|
----------|----------------------------------------------------------|----------|
----------|----------------------------------------------------------|----------|

--18-12-18-12p11p7-18-12-18-12p11p7-18-12-18-12p11p7--------|--------------------------|
------------------------------------------------------------|--------------------------|
-----------------------------------------------------x------|--------------------------|
------------------------------------------------------------|------7~-------9----10----|
------------------------------------------------------------|--------------------------|
------------------------------------------------------------|--------------------------|

---------------------|--------------------------|------------------------|
---------------------|----------------7--8--10--|--12~---13--10~---------|
--7----9--7~---------|--7----9~-----------------|------------------------|
---------------------|--------------------------|------------------------|
---------------------|--------------------------|------------------------|
---------------------|--------------------------|------------------------|

-----------------------------12--|--14~---15--12~-------12/-|----11b-----11~-----11p10p9p|
--10/-3/---12----12~-----15------|--------------------------|----------------------------|
---------------------------------|--------------------------|----------------------------|
---------------------------------|--------------------------|----------------------------|
---------------------------------|--------------------------|----------------------------|
---------------------------------|--------------------------|----------------------------|

--8----12/-5----------|------5p-4--5------5p-4h-5--|--9----10--------------|
----------------------|----------------------------|-----------------------|
----------------------|----------------------------|-----------11~---------|
----------------------|----------------------------|-----------------------|
----------------------|----------------------------|-----------------------|
----------------------|----------------------------|-----------------------|

--------------------12----14--15--|--15b---------------|----18~-----18--16-14-------|
--------12--15--------------------|--------------------|----------------------16~---|
--11/-----------------------------|--------------------|----------------------------|
----------------------------------|--------------------|----------------------------|
----------------------------------|--------------------|----------------------------|
----------------------------------|--------------------|----------------------------|
                                                                        
----19------19--17-15-------|----20r---------------|----21b---------------|
----------------------17----|----------------------|----------------------|
----------------------------|----------------------|----------------------|
----------------------------|----------------------|----------------------|
----------------------------|----------------------|----------------------|
----------------------------|----------------------|----------------------|

-------------------|------------------|---------------------------|
-------------------|------------------|---------------------------|
-------------------|------------------|----------------------0----|
-------------------|------------------|---------------------------|
--3----------------|------------------|---------------------------|
-------------------|------------------|---------------------------|

--------------------------|---------------------------|
--------------------------|---------------------------|
--------------------------|--7------------------------|
--------------------------|---------------------------|
--------------------------|---------------------------|
--------------------------|---------------------------|

-----------------------------------|-----------------------------------|
-----------------------------------|-----------------------------------|
-----------------------------------|-----------------------------------|
-----------------------------------|-----------------------------------|
--10p9p7p5----5--5-7---------------|--10p9p7p5----5--5-7---------------|
------------7----------------------|------------7----------------------|

-----------------------------------------------|
-----------------------------------------------|
-----------------------------------------------|
-----------------------------------------------|
--10p9p7p5----5--5-7---7-9---9-10---10-12-12-0-|
------------7----------------------------------|

------------------------------------------------------|
------------------------------------------------------|
------------------------------------------------------|
------------------------------------------------------|
--12-14-14-14-14-12-12--12-14-14-14-14----14--14/-----|
------------------------------------------------------|

----------------------------------------|
-------------7--------7---------------7-|
--7-9-9-9-9~---7-9~-----7---------7-9---|
-------------------------------9--------|
----------------------------------------|
----------------------------------------|

---------------------------------------------------|--------------------------------|
--8---8-8--10--10~---10-12-12---12-12-12-12-12-12--|-------12-------12------12------|
---------------------------------------------------|--------------------------------|
---------------------------------------------------|--------------------------------|
---------------------------------------------------|--------------------------------|
---------------------------------------------------|--------------------------------|

------------------------------|
--12--------------------------|
---------------5--------5-----|
------------------------------|
------------------------------|
------------------------------|

-----------------------------------------------10-10-10-12-12-12-|
--------7-9-9-11-11-12-12-12-12-14-14-14-14-12-------------------|
----5---5-7-7-9--9--10-10-10-10-12-12-12-12-10-------------------|
------7----------------------------------------------------------|
                                                                
-----17-17-17-17-19-19-19-19-12-12-0-0-14-14-14-14-15-12---------|
--14--------------------------------------------------------0-16-|
                                                               
--19-------------17------12---------------10-----12--------------|
-----------17-----------------12-----10---------------12------15-|
--------------14----14-9----------------7----7-9-----------------|
-----16-14------------------9----9-7----------------9----9-12----|

---15-------14--------------------------------------------|
------------------15--------------------------------------|
------12-11------------------12-12-11-11-11-9-9-9-7---7---|
---------------12-----------------------------------------|
---------------------12~--10----10-9-----9--7---7-5-5-----|
----------------------------------------------------------|

------------------------------------|-------------------|------------------|
------------------------------------|-------------------|------------------|
---------------------------0--------|--0----------------|------------------|
------------------------------------|-------------------|------------------|
--10p9p7p5----5--5-7----------------|-------------------|------------------|
------------7-----------------------|-------------------|------------------|

------------------|------------------||
------------------|------------------||
------------------|------------------||
------------------|------------------||
------------------|------------------||
------------------|------------------||





Comments


Popular Satriani Joe tabs & chords
Crystal Planet Bass Tabs
Love Thing 1 Bass Tabs
If 1 Tabs
Midnigth Tabs
Smf Tabs
Speed Of Light 1 Tabs
Surfing With The Alien 1 Tabs
Tears In The Rain Tabs
The Mighty Turtle Head 1 Tabs
Up In The Sky Tabs


Song lyrics



↑ Back to top | Tablatures and chords are parodies/interpretations of the original songs. You may use it for private study, scholarship, research or language learning purposes only
© 2014 AZChords.com Contact us | Privacy policy | DMCA | Add/correct tabs | Request tabs | Top 50 tabs