>
 >
Starry Night

Starry Night Guitar Tabs

Satriani Joe - Starry Night chords, tabs, tablatures, lyrics

Guitar lessons | Add/correct | Request | Top 50 tabs Artists:  A B C D E F G H I J K L M N O P Q R S T U V W X Y Z 0-9

Starry Night Guitar Tabs – Satriani Joe

CD, Sheet music, Poster

Do you like Starry Night? Share with your friends now
Tabs

--------------12------14------------------------------------------------------
-10-12-12/14------------------12p10-12p10-12/14------14\--------------10------
----------------------------------------------------------12p10-12-10---------
                                                                              

------------------------------12------14--------------------------------------
--------10--12p10-12p10-12/14---------------12p10-12-12/14\7------------------
-12p10-----------------------------------------------------------10-10/12-----
                                                                              

-------------------------------------------------------------12---14----------
----------10-------------10--10--10------10\------10-12/14--------------------
-\10--12----------12-10----------------------/12------------------------------
                                                                              

-15b17-----15b17-15-13------13--15b17-------------------------13--------------
------------------------14----------------------12/14\12--14------------------
                                                                              

----------------------------------------------------------12-----14-----------
-12p10----10/14----14\--------------10--12-10-12-10-12/14--------------12p10--
-------12--------------12p10-12-10--------------------------------------------
                                                                              

-12-14----------------------------10--------------10----10----10------/14-----
--------12--12p10-10-10h12p10-12-----------12-10--------------10--------------
                                                                              

--------------------------13-15-13-12-15b17-15-13----13-----------------------
-1214---12---14-------/14-------------------------14----12b14-----------14\---
                                                                              

-----------------------------------------------------15-----------------------
-----13--15-b17r15p13-15-13-15-16-15-13-15b17-15b17------17---15p13-----------
-14-----------------------------------------------------------------14--------
                                                                              

-13---15b17----------13-15-13-15b18-15b17--13----13-13-15b17-------------13---
---------------12-14--------------------------14-----------------12-14--------
                                                                              

-15b17----------13-15-13-15b18-15b17--13----13-------------13-15/17-----------
----------12-14--------------------------14----14-12--/12---------------------
                                                                              

-15b17-------15---15b17r15-------------------------15-18---18b20-18b20-18b20--
---------------------------17r15p13-15b17----18b20----------------------------
                                                                              

-18b20--------18b20--20r18b20----18b20---11-8----------8-8------8------8------
-------------------------------------------------11b13-----8-11---8-11--------
                                                                              

-8-----8---------8\-----------------------------------------------------------
---10-----9------9\---------5--------------------5------------5-----5---------
----------------------------5--------------------5------------5-----5---------
-----------------------3----------x--3--x-x-5--------x---5h7--------------x---
                                                                              

---------------------8---x--8-------------------------------------------------
----5--5--5--5--5h7--7---x--7--7/9-9-9-9-------------10-----x--9--------------
----5--7--5--5-----------------5/7-7-7---7-10--10-7--10-----x--10-------------
-8--8--8--8--8-------------------------------------------------10------10-10--
                                                                              

---------------------------------6--5-------------8--------8-----------5h6----
-----------------5------5--------5--5-----------5-5--------5-----------5------
-----10----------5------5-x-x-5--5--5-5-5-------------------------------------
--------12---3------x-x-3------------------5h7-------x--x-----x--x--8---------
-/11--------------------------------------------------------------------------
                                                                              

-------------------------5----------------------8------8-8-8-8-8-8------------
-6-6--6/8---8--8\--------5---5h6----6--x--x--6--8------8-8-8-8-8-8------------
-5-5--5/7---7--7\5---5---5---5------5--x--x-----------------------------------
---------------9\7---7---7----------------------------------------------------
                                                                              

-x---20---20---17----------------17-----20b22---22b24---20----17------17------
------------------20b22----20-------------------------------------20----------
                                                                              

-20-p-17--------17--17--17--------------------17------------------------------
-----------20----------------20-p-17--------------20-p-17---------------------
---------------------------------------19b21---------------19b21---17---------
                                                                              

---------------------17-20p17----17-------------------------------------------
-19------17---19b21-----------20----20-19p17----19p17----17-------------------
-----19--------------------------------------19-------19----19p17-19p17-------
                                                                              

----------------------------------------------17-20-20b22-22b24--20--20-------
----------------------------------------17-20---------------------------------
----------------------------------17/19---------------------------------------
-17-------------------------17/19---------------------------------------------
----19--15------15----15/19---------------------------------------------------
-------------17----17---------------------------------------------------------
                                                                              

-22b24---------22b24--22--20--------20---22---20--22b25-22b24---20---22b25----
-------------------------------22---------------------------------------------
                                                                              

-22b24--20---22b25-22b24-20-20------------------------------------------------
-----------------------------------5----5--5--x-x-x-x-x--x--x-x--5----5-------
-----------------------------------5----5--5--x-x-x-x-x--x--x-x--5----5-------
-----------------------------------3----3--3--x-x-x-x-x--x--x-x--3----3-------
                                                                              

-x--x--x--x-----------------3--------------------5----------------------------
-x--x--x--x--------------3----------3---------5--------------3------------3---
-x--x--x--x---3--5----6--------5----------3---------------3-----------3-------
---------------------------------------6------------5------------6------------
                                                                              

----------------------------5-------------------------------------------------
---------3-----------5---------5----------------------------------------------
------3-----------5-----3----------3---3----5---------------------------------
-6---------3------------------------------------------------------------------
                                                                              

-------------------------------------------------11b--------------------------
---------------------------------------------8---------13-------13p11---------
--------------------------------9------10-------------------------------------
----10------10----10--------8---10--------------------------------------------
-----------------------10-----------------------------------------------------
                                                                              

-8----------------------------------------------------------------------------
----------------------------------------9----------------------3-------3------
-------8/10\8/10------10---8--10----10-----10----------------3-------3--------
---------------------------------------------------3--5----6------5-----------
                                                                              

------5-----------------------------------------5-------5----------------3----
----5------------3-----------3----------5----------5----5--------------3------
-3------------3-----------3----------5-----3----------3----3--5----6----------
----------5----------6-----------3--------------------------------------------
                                                                              

------3--------3------5------------------------------3---5---------------5----
----3--------3----------5------3--------3---------5------5---------------5----
-5--------5-------3---------------3--------3-------------3---------------3----
---------------------------5---------6--------3-------------------------------





Comments


Popular Satriani Joe tabs & chords
Ceremony Tabs
Crush Of Love Tabs
Hands In The Air Tabs
Is There Love In Space Tabs
Just Look Up Tabs
Lights Of Heaven 2 Tabs
Summer Song 1 Tabs
The Mighty Turtle Head 1 Tabs
The Power Cosmic 2000 Part 2 Tabs
Until We Say Goodbye Tabs


Song lyrics



↑ Back to top | Tablatures and chords are parodies/interpretations of the original songs. You may use it for private study, scholarship, research or language learning purposes only
© 2014 AZChords.com Contact us | Privacy policy | DMCA | Add/correct tabs | Request tabs | Top 50 tabs