» » »

Sleep Walk Tabs (ver.1)

Artists:  A B C D E F G H I J K L M N O P Q R S T U V W X Y Z # 

Sleep Walk Tabs (ver.1)

Satriani Joe
Rating:
0/5 (0 votes)

Hard to play? Try these video lessons and learn fast.
                C      Am      Fm     G


e----------------------|------------------------------
B---13~~---(13)---8----|---6---8---/----9~~----8-----6
G----------------------|---7---9---/---10~~----9-----7
D----------------------|------------------------------
A----------------------|---8--10---/---11~~---10-----8
E----------------------|------------------------------


C      Am      Fm     G     C     Am


e-----------------------------|--------------------------------------------------------6
B--12/13--(13~)--(13~)--8--(8)|--6---8--/-9-\-8---6--6/8---5--8--5--------------10--12--
G-----------------------------|--7---9--/10-\-9--------------------5----------9---------
D-----------------------------|--------------------------------------7-----10-----------
A-----------------------------|--8--10--/11-\10-------------------------12--------------
E-----------------------------|---------------------------------------------------------


F     G      C      Am      F     G

e---------------------------------------------------15/17/20/19-------------------------
B--12-----------------------------------------------------------------------------------
G-----5--5--5--5---7/--9---7/--9---7/--9--7/--9--------------------2--2--2--2--2---4---4
D------------------------------------------------------------------3--3--3--3--3---5---5
A------------------8/-10---8/-10---8/-10---8/-10----------------------------------------
E---------------------------------------------------------------------------------------
            
Hard to play? Try these video lessons and learn fast. | Correct




comments powered by Disqus
↑ Back to top | Tablatures and chords are parodies/interpretations of the original songs. You may use it for private study, scholarship, research or language learning purposes only