>
 >
Psycho Monkey

Psycho Monkey Bass Tabs

Satriani Joe - Psycho Monkey chords, tabs, tablatures, lyrics

Guitar lessons | Add/correct | Request | Top 50 tabs Artists:  A B C D E F G H I J K L M N O P Q R S T U V W X Y Z 0-9

Psycho Monkey Bass Tabs – Satriani Joe

CD, Sheet music, Poster

Do you like Psycho Monkey? Share with your friends now
Bass Tabs
archive,
he
           doesn't mind I'm publishing this.

--------------------------------------------------

/     = Slide up
\     = Slide down
5h7   = Hammer on from fret 5 to fret 7
19p17 = Pull off from fret 19 to fret 17
x     = Mute string
^     = Bend
~12   = Vibrato on fret 12
S     = Slap note
P     = Pop note

--------------------------------------------------

Tune down 1 step
Palm mute the marked notes (*)

Bass enters at 0:08

Intro
F||-----|-------------------------------5-3------------5-3----------|
C||-----|---------*-*-*---------*-*-*-------5--3-----------5--3-----|
G||-13\-|-3---3---3-3-3-3---3---3-3-3-3----------6-3------------6-3-|
D||-----|-----------------------------------------------------------|

Riff 1
F||-----------------------------------5-3------------5-3----------|
C||---------------------------------------5--3-----------5--3-----|
G||-3-3-3-3-3-3-3-3-3-3-3-3-3-3-3-3-3----------6-3------------6-3-|
D||---------------------------------------------------------------|

Riff 2
F||-----------------------------------------------------------------|
C||-----------0-1-2-3-3-3-3---3-3-3-----------0-1-2-3-3-3-----------|
G||-0-1-2-3-4-----------------------0-1-2-3-4-------------0---0-0-0-|
D||-----------------------------------------------------------------|

Riff 3
F||----------------------------------------------------------------------|
C||------1-1-1-1--------3-3-3-3-/5---------------------------------------|
G||----------------1--1------------3--3-3-3p1h3p1h3p1-3--3-3-3p1h3p1h3---|
D||-4--4---------4-----------------------------------------------------3-|

F||-------------------------------------------------------------------|
C||------1-1-1-1--------3-3-3-3-/5------------------------------------|
G||----------------1--1------------3--3-3-3p1h3p1h3-------------------|
D||-4--4---------4----------------------------------3---3-3-3-3-3-3-3-|

F||---------------------------------------------------------------------|
C||------1-1-1-1--------3-3-3-3-/5-------------------------------/5-3---|
G||----------------1--1------------3--3-3-3p1h3p1h3p1-3--3-3-3-3------3-|
D||-4--4---------4------------------------------------------------------|

F||--------------------------------------------------------------|
C||------1-1-1-1--------3-3-3-3-/5-------------------------------|
G||----------------1--1------------3--3-3-3----------------------|
D||-4--4---------4--------------------------6-5-3--3-3-3-3-3-3-3-|

Riff 4
F||-----------------------------------|
C||-------------*-*-*-----------------|
G||-2p1-1-2p1---1-1-1-2p1-1---------2-|
D||-------------------------4---4-4---|

Riff 5
F||-----------------------------------|
C||------------------------/3---3-3-5-|
G||-------------*-*-*-----------------|
D||-4p3-3-4p3---3-3-3-4p3-3-----------|

Outro
F||---------------------------------------------------------------------|
C||------1-1-1-1--------3-3-3-3-/5-------------------------------/5-3---|
G||----------------1--1------------3--3-3-3p1h3p1h3p1-3--3-3-3-3------3-|
D||-4--4---------4------------------------------------------------------|

F||------------------------------------------------------------------|
C||------1-1-1-1-----0-1-3--3-3-3------------------------------------|
G||----------------1--------------3--3-3-3p1h3p1h3-------------------|
D||-4--4---------4---------------------------------3---3-3-3-3-3-3-3-|

F||-------------------------------------------------------------------|
C||------1-1-1-1--------3-3-3-3-/5---------------------1-2-3-1-3-5----|
G||----------------1--1------------3--3-3-3p1h3p1h3-3--------------6\-|
D||-4--4---------4----------------------------------------------------|

F||-------------------------------|-----|-|-|---------5-------------|
C||------1-1-1-1-----0-1-3--3-3-3-|-----|-|-|----2-/5-------5-2-----|
G||----------------1--------------|-(3)-|-|-|-/3-----------------3\-|
D||-4--4---------4----------------|-----|-|-|-----------------------|

SONG STRUCTURE:
Intro
Riff 1 x4
Riff 2 x2
Riff 1 x4
Riff 3
Riff 4 x4
Riff 5 x4
No bass from 2:52 to 2:54
Riff 1 x4
Outro





Comments


Popular Satriani Joe tabs & chords
Love Thing Bass Tabs
The Crush Of Love 1 Bass Tabs
Cryin 1 Tabs
Midnight Tabs
Midnight 1 Tabs
Rubina Live (Intro) Tabs
Satch Boogie Tabs
Sleep Walk Tabs
Summer Song 1 Tabs
Surfing With An Alien Tabs


Song lyrics



↑ Back to top | Tablatures and chords are parodies/interpretations of the original songs. You may use it for private study, scholarship, research or language learning purposes only
© 2014 AZChords.com Contact us | Privacy policy | DMCA | Add/correct tabs | Request tabs | Top 50 tabs