>
 >
Midnigth

Midnigth Guitar Tabs

Satriani Joe - Midnigth chords, tabs, tablatures, lyrics

Guitar lessons | Add/correct | Request | Top 50 tabs Artists:  A B C D E F G H I J K L M N O P Q R S T U V W X Y Z 0-9

Midnigth Guitar Tabs – Satriani Joe

CD, Sheet music, Poster

Do you like Midnigth? Share with your friends now
Tabs
Tuning:E A D G B e


| b    bend full  	| T    tapping      
| b(X) ben to note	| T*   tapping fret hand	
| b%   bend 1/4		| NH   Natural harmonic
|(X)   ghost note	| x    Mute note
| /    slide up		| PM   Palm mute
| \    slide down	| RP   Repick
| h    hammer-on	| ~    vibrato
| p    pull-off



INTRO:

     Bm			    G7dis		       Bm
e:-|----------------------|--------------------------|----------------------|-
B:-|-----12--------12-----|-------14----------14-----|-----12--------12-----|-
G:-|*--------------------*|*------------------------*|*--------------------*|-
D:-|*-------12--------12-*|*---11----14----11----14-*|*-------12--------12-*|-
A:-|---9---------9--------|-10----------10-----------|---9---------9--------|-
E:-|-7---------7----------|--------------------------|-7---------7----------|-
     T T T* T* T T T* T*

     G7dis		     F#m/G		       Bm
e:-|-------------------------------14----------14----|----------------------|-
B:-|-------14----------14----------------------------|-----12--------12-----|-
G:-|----------------------------------14----------14-|*--------------------*|-
D:-|----11----14----11----14----11----------11-------|*-------12--------12-*|-
A:-|-10----------10----------10----------10----------|---9---------9--------|-
E:-|-------------------------------------------------|-7---------7----------|-

     Em			    F#7sus4		    F#7
e:-|-----12--------12-----|----------------------|-----------------------|---
B:-|----------------------|-----12--------12-----|------11--------11-----|---
G:-|*-------12--------12-*|*--9---------9-------*|*---9---------9-------*|---
D:-|*--------------------*|*-------12--------12-*|*--------11--------11-*|---
A:-|---9---------9--------|-9---------9----------|--9---------9----------|-9-
E:-|-7---------7----------|----------------------|-----------------------|---

     Bm			    G7dis		       Bm
e:-|----------------------|--------------------------|----------------------|-
B:-|-----12--------12-----|-------14----------14-----|-----12--------12-----|-
G:-|*--------------------*|*------------------------*|*--------------------*|-
D:-|*-------12--------12-*|*---11----14----11----14-*|*-------12--------12-*|-
A:-|---9---------9--------|-10----------10-----------|---9---------9--------|-
E:-|-7---------7----------|--------------------------|-7---------7----------|-

     F#m/G					       Bm
e:-|-------14----------14----------12----------12----|----------------------|-
B:-|-------------------------------------------------|-----12--------12-----|-
G:-|----------14----------14----------12----------12-|*--------------------*|-
D:-|----11----------11----------11----------11-------|*-------12--------12-*|-
A:-|-10----------10----------10----------10----------|---9---------9--------|-
E:-|-------------------------------------------------|-7---------7----------|-

     Em			    F#7sus4		    F#7      x3
e:-|-----12--------12-----|----------------------|-------------|---||-
B:-|----------------------|-----12--------12-----|------11-----|---||-
G:-|*-------12--------12-*|*--9---------9-------*|*---9-------*|---||-
D:-|*--------------------*|*-------12--------12-*|*--------11-*|---||-
A:-|---9---------9--------|-9---------9----------|--9----------|-9-||-
E:-|-7---------7----------|----------------------|-------------|---||-


THEME:


      Em/B				  B
e:-|------------------------------------|------------------------------------|-
B:-|-----17---17----17----17---17----17-|----16---16----16----16---16----16--|-
G:-|*-4-----4-----4----4-----4-----4----|-4-----4-----4----4-----4-----4----*|-
D:-|*----17---17----17----17---17----17-|----16---16----16----16---16----16-*|-
A:-|--2-----2-----2----2-----2-----2----|-2-----2-----2----2-----2-----2-----|-
E:-|------------------------------------|------------------------------------|-
      T* T  T* T  T* T T*  T T* T  T* T

      Gm/D				  D
e:-|------------------------------------|------------------------------------|-
B:-|-----20---20----20----20---20----20-|----19---19----19----19---19----19--|-
G:-|*-7-----7-----7----7-----7-----7----|-7-----7-----7----7-----7-----7----*|-
D:-|*----20---20----20----20---20----20-|----19---19----19----19---19----19-*|-
A:-|--5-----5-----5----5-----5-----5----|-5-----5-----5----5-----5-----5-----|-
E:-|------------------------------------|------------------------------------|-

      Am/E				  Em
e:-|-----17---17----17----17---17----17-|----15---15----15----15---15----15--|-
B:-|------------------------------------|------------------------------------|-
G:-|*-9--17-9-17--9-17-9--17-9-17--9-17-|-9--16-9-16--9-16-9--16-9-16--9-16-*|-
D:-|*-----------------------------------|-----------------------------------*|-
A:-|--7-----7-----7----7-----7-----7----|-7-----7-----7----7-----7-----7-----|-
E:-|------------------------------------|------------------------------------|-

   Bm/F#							F#7
e:-----19----19-----19-----19----19-----19-|-----19----19-----19-----21----21-----21-|-
B:-----------------------------------------|-----------------------------------------|-
G:-11--19-11-19--11-19-11--19-11-19--11-19-|-11--19-11-19--11-19-11--21-11-21--11-21-|-
D:-----------------------------------------|-----------------------------------------|-
A:--9------9------9-----9------9------9----|--9------9------9-----9------9------9----|-
E:-----------------------------------------|-----------------------------------------|-


e:-|------18----18-----18-----18----18-----18--||-
B:-|-------------------------------------------||-
G:-|*-11--18-11-18--11-18-11--18-11-18--11-18-*||-
D:-|*-----------------------------------------*||-
A:-|---9------9------9-----9------9------9-----||-
E:-|-------------------------------------------||-

   Gmaj7				     G7dis
e:-----------------------------------------|-----------------------------------------|-
B:-----12----12-----12-----12----12-----12-|-----14----14-----14-----14----14-----14-|-
G:-11-----11-----11----11-----11-----11----|-11-----11-----11----11-----11-----11----|-
D:-----12----12-----12-----12----12-----12-|-----14----14-----14-----14----14-----14-|-
A:-10-----10-----10----10-----10-----10----|-10-----10-----10----10-----10-----10----|-
E:-----------------------------------------|-----------------------------------------|-

   Gmaj7				     G7dis
e:-----------------------------------------|-----------------------------------------|-
B:-----15----15-----15-----15----15-----15-|-----17----17-----17-----17----17-----17-|-
G:-11-----11-----11----11-----11-----11----|-11-----11-----11----11-----11-----11----|-
D:-----16----16-----16-----16----16-----16-|-----17----17-----17-----17----17-----17-|-
A:-10-----10-----10----10-----10-----10----|-10-----10-----10----10-----10-----10----|-
E:-----------------------------------------|-----------------------------------------|-

   F#7				       Cmaj9
e:-----------------------------------|-----------------------------------|-
B:----11---11----11----11---11----11-|----12---12----12----12---12----12-|-
G:-9-----9-----9----9-----9-----9----|-9-----9-----9----9-----9-----9----|-
D:----11---11----11----11---11----11-|----12---12----12----12---12----12-|-
A:-9-----9-----9----9-----9-----9----|-----------------------------------|-
E:-----------------------------------|-8-----8-----8----8-----8-----8----|-

   F#7				       Em7
e:-----------------------------------|-----------------------------------|-
B:----11---11----11----11---11----11-|----12---12----12----12---12----12-|-
G:-9-----9-----9----9-----9-----9----|-7-----7-----7----7-----7-----7----|-
D:----11---11----11----11---11----11-|----12---12----12----12---12----12-|-
A:-9-----9-----9----9-----9-----9----|-7-----7-----7----7-----7-----7----|-
E:-----------------------------------|-----------------------------------|-

   F#7				       Gmaj7
e:-----------------------------------|-----------------------------------------|-
B:----11---11----11----11---11----11-|-----12----12-----12-----12----12-----12-|-
G:-9-----9-----9----9-----9-----9----|-11-----11-----11----11-----11-----11----|-
D:----11---11----11----11---11----11-|-----12----12-----12-----12----12-----12-|-
A:-9-----9-----9----9-----9-----9----|-10-----10-----10----10-----10-----10----|-
E:-----------------------------------|-----------------------------------------|-

									 __________
      F#7sus4				    F#7                          |1.   |2.
e:-|-------------------------------------|-------------------------------------|---||-
B:-|-----12---12----12----12---12----12--|-----11---11----11----11---11----11--|---||-
G:-|*-9-----9-----9----9-----9-----9----*|*-9-----9-----9----9-----9-----9----*|---||-
D:-|*----12---12----12----12---12----12-*|*----11---11----11----11---11----11-*|---||-
A:-|--9-----9-----9----9-----9-----9-----|--9-----9-----9----9-----9-----9-----|-9-||-
E:-|-------------------------------------|-------------------------------------|---||-

OUTRO:

   Bm        G7dis       Em        F#7		      Em7       G7dis       Bm
e:---------------------------12-----------|-------------------------------------------|-
B:-----12----------14------------------11-|-----11--------12----------14--------12----|-
G:------------------------------12---9----|---9---------7-----------------------------|-
D:--------12----11----14---9--------------|--------11--------12----11----14--------12-|-
A:---9-------10----------7---------9------|-9---------7---------10------------9-------|-
E:-7--------------------------------------|---------------------------------7---------|-
   T*T*T  T  T* T*  T  T T*T* T  T T*T* T

     Bm        G7dis       Em        F#7		   Em7       G7dis       Bm
e:-|---------------------------12--------------|--------------------------------------------|-
B:-|-----12----------14------------------11----|-----11--------12----------14--------12-----|-
G:-|*-----------------------------12---9-------|---9---------7-----------------------------*|-
D:-|*-------12----11----14---9--------------11-|--------11--------12----11----14--------12-*|-
A:-|---9-------10----------7---------9---------|-9---------7---------10------------9--------|-
E:-|-7-----------------------------------------|---------------------------------7----------|-

   Bm        G7dis       Em        F#7		         Em7       G7dis       Bm
e:---------------------------12--------------|----------------------------------------|-
B:-----12----------14------------------11----|-----11--------12----------14--------12-|-
G:------------------------------12---9-------|---9---------7--------------------------|-
D:--------12----11----14---9--------------11-|--------11--------12----11----14-----12-|-
A:---9-------10----------7---------9---------|-9---------7---------10------------9----|-
E:-7-----------------------------------------|---------------------------------7------|-

   Edis/B				     
e:-----12--------12--------12--------12----|-----12--------12--------12--------12----|-
B:-----------------------------------------|-----------------------------------------|-
G:--------12--------12--------12--------12-|--------12--------12--------12--------12-|-
D:---8---------8---------8---------8-------|---8---------8---------8---------8-------|-
A:-----------------------------------------|-----------------------------------------|-
E:-7---------7---------7---------7---------|-7---------7---------7---------7---------|-

   B
e:-----11--------11--------11--------11----|-----11--------11--------11--------11----|-
B:-----------------------------------------|-----------------------------------------|-
G:--------11--------11--------11--------11-|--------11--------11--------11--------11-|-
D:---9---------9---------9---------9-------|---9---------9---------9---------9-------|-
A:-----------------------------------------|-----------------------------------------|-
E:-7---------7---------7---------7---------|-7---------7---------7---------7---------|-

   Edis/B				     
e:-----12--------12--------12--------12----|-----12--------12--------12--------12----|-
B:-----------------------------------------|-----------------------------------------|-
G:--------12--------12--------12--------12-|--------12--------12--------12--------12-|-
D:---8---------8---------8---------8-------|---8---------8---------8---------8-------|-
A:-----------------------------------------|-----------------------------------------|-
E:-7---------7---------7---------7---------|-7---------7---------7---------7---------|-

   B
e:-----11--------11--------11--------11----|-----11--------11----------||-
B:-----------------------------------------|---------------------------||-
G:--------11--------11--------11--------11-|--------11--------11-------||-
D:---9---------9---------9---------9-------|---9---------9-------------||-
A:-----------------------------------------|---------------------------||-
E:-7---------7---------7---------7---------|-7---------7---------7-----||-

ENJOY IT!!





Comments


Popular Satriani Joe tabs & chords
Lights Of Heaven Bass Tabs
Raspberry Jam Delta-V Bass Tabs
Satch Boogie Bass Tabs
Cryin Tabs
Driving At Night Tabs
Flying In A Blue Dream Tabs
Smf Tabs
Surfing With The Alien Tabs
The Mighty Turtle Head Tabs
Time Tabs


Song lyrics



↑ Back to top | Tablatures and chords are parodies/interpretations of the original songs. You may use it for private study, scholarship, research or language learning purposes only
© 2014 AZChords.com Contact us | Privacy policy | DMCA | Add/correct tabs | Request tabs | Top 50 tabs