>
 >
Just Look Up

Just Look Up Guitar Tabs

Satriani Joe - Just Look Up chords, tabs, tablatures, lyrics

Guitar lessons | Add/correct | Request | Top 50 tabs Artists:  A B C D E F G H I J K L M N O P Q R S T U V W X Y Z 0-9

Just Look Up Guitar Tabs – Satriani Joe

CD, Sheet music, Poster

Do you like Just Look Up? Share with your friends now
Tabs
Tuning:Standard
| /  slide up
| \  slide down
| h  hammer-on
| p  pull-off
| ~  vibrato
| +  harmonic
| x  Mute note
| ^  Bend

Phrase 1

e|-------------------------------------------|-------------------------------|
B|-------------------------------------------|-------------------------------|
G|-------------------------------------------|-------------------------------|
D|-------------------------------------------|--14/16/18\16------------------|
A|-7/-9/-11/-14~---14p16h14---9h11p9\-7/9/11~|-----------------7/-9/-11/-14~-|
E|-------------------------------------------|-------------------------------|

e|-----|-----------------------------|---------------------------------------|
B|-----|-----------------------------|---------------------------------------|
G|-----|-----------------------------|---------------------------------------|
D|-14^~|----11\9-9\6/9\6~~-----------|--11\9-9\6/9\6~------------------------|
A|-----|-------------------7-9-9^-11~|----------------9h11p9\7~---7/--9\--7~-|
E|-----|-----------------------------|---------------------------------------|

e|------------------------------------------------------------|--------------|
B|------------------------------------------------------------|--------------|
G|------------------------------------------------------------|--------------|
D|-14\13\9/11\-6/9/11~-----14\13\11\9/11/13/14\13/16/18\16\14~|--------------|
A|------------------------------------------------------------|--------------|
E|------------------------------------------------------------|--------------|

Phrase 2
e|-------16^--19-------------------------|-------16^--19---------------------|
B|-14-17--------19^r17-19--14-17-19-19^--|-14-17--------19^r17-19~--14-17-17~|
G|---------------------------------------|-----------------------------------|
D|---------------------------------------|-----------------------------------|
A|---------------------------------------|-----------------------------------|
E|---------------------------------------|-----------------------------------|

Phrase 3

e|------------------------------------------|--------------------------------|
B|------------------------------------------|--------------------------------|
G|------------------------------------------|--------------------------------|
D|-11\9-9\6/9\6~~---------------------------|--11~\9-11/14\13~-----------9~~-|
A|---------------9h11p9-\7-\4~---4/7/9\7/11-|--------------------------------|
E|------------------------------------------|--------------------------------|

e|-----------------|---------------------------------------------------------|
B|-----------------|---------------------------------------------------------|
G|-----------------|---------------------------------------------------------|
D|-9h-11p-9h-11p-9-|-14\13\9/11\-6/9/11~----14\13\11\9/11/13/14/16/18\16\14~-|
A|-----------------|---------------------------------------------------------|
E|-----------------|---------------------------------------------------------|

Phrase 4

e|-------16^--19-------------------------|-------16^--19---------------------|
B|-14-17--------19^r17-19--14-17-19-19^--|-14-17--------19^r17-19~--14-17-17~|
G|---------------------------------------|-----------------------------------|
D|---------------------------------------|-----------------------------------|
A|---------------------------------------|-----------------------------------|
E|---------------------------------------|-----------------------------------|


e|-----------------------|
B|-17\14\12h14p12\9\7\5--|
G|-----------------------|
D|-----------------------|
A|-----------------------|
E|-----------------------|

e|-------16^--19-------------------------|-------16^--19---------------------|
B|-14-17--------19^r17-19--14-17-19-19^--|-14-17--------19^r17-19~--14-17-17~|
G|---------------------------------------|-----------------------------------|
D|---------------------------------------|-----------------------------------|
A|---------------------------------------|-----------------------------------|
E|---------------------------------------|-----------------------------------|

Phrase 5

e|------------------------------------|------------------------------7h9-7h9~|
B|-17\14\12h14p12\9h12p9\7h9p7\5h7p5~-|-2/-5-5-7^--5-5-----------------------|
G|------------------------------------|---------------6----------------------|
D|------------------------------------|--------------------------------------|
A|------------------------------------|--------------------------------------|
E|------------------------------------|--------------------------------------|

e|-7/-9/-12/-14~--------------------------------|----------------------------|
B|----------------17\14\12h14p9--12-9-7-9--9^r5-|----------------------------|
G|----------------------------------------------|----------------------------|
D|----------------------------------------------|----------------------------|
A|----------------------------------------------|----------------------------|
E|----------------------------------------------|----------------------------|

That all for now!





Comments


Popular Satriani Joe tabs & chords
Always With Me Tabs
Baroque 1 Tabs
Circles Tabs
Crush Of Love 1 Tabs
Crushing Day Tabs
Cryin 1 Tabs
If Tabs
Satch Boogie Tabs
Speed Of Light Tabs
Summer Song 1 Tabs


Song lyrics



↑ Back to top | Tablatures and chords are parodies/interpretations of the original songs. You may use it for private study, scholarship, research or language learning purposes only
© 2014 AZChords.com Contact us | Privacy policy | DMCA | Add/correct tabs | Request tabs | Top 50 tabs