» » »

Satriani Joe, Is There Love In Space Tabs (ver.1)

Artists:  A B C D E F G H I J K L M N O P Q R S T U V W X Y Z # 

Is There Love In Space Tabs (ver.1)

Satriani Joe Tabs
 Rating:
4/5 (4 votes)
Is There Love In Space lessons Tabs too difficult? Try these video lessons and learn fast
1
                Tuning: Standard

| /  slide up
| \  slide down
| h  hammer-on
| p  pull-off
| ~  vibrato
| +  harmonic
| x  Mute note
| ^  Bend

Intro:
  0.10
e|-------------|-------------|-------------|-------------|
B|-------------|-------------|-------------|-------------|
G|-------------|-------------|-------5--5~-|-------------|
D|----5-----4~-|-------5--5~-|----3--------|-------5--6~-|
A|-3-----3-----|----3--------|-1-----------|----3--------|
E|-------------|-1-----------|-------------|-1-----------|


e|-------------|-------------|-------------|-------------|
B|-------------|-------------|-------------|-------------|
G|-------------|-------------|-------5--5~-|-------------|
D|----5-----4~-|-------5--5~-|----3--------|-------5--6~-|
A|-3-----3-----|----3--------|-1-----------|----3--------|
E|-------------|-1-----------|-------------|-1-----------|

Lead:
  0.34
e|--------------|---------------|--------------|---------------|
B|--------------|---------------|--------------|---------------|
G|--------------|---------------|--------------|---------------|
D|-10-10-8-10~\-|-13-12-10\8/10-|-10-10-8-10~\-|-15-13--12-10~-|
A|--------------|---------------|--------------|---------------|
E|--------------|---------------|--------------|---------------|
  0.54
e|------------|-----------|----------------------|
B|------------|-----------|----------------------|
G|-------11~\-|------12~\-|--13-12-10\8/10-13-10-|
D|--10~-------|--10-------|----------------------|
A|------------|-----------|----------------------|
E|------------|-----------|----------------------|
  1.06
e|------------|-----------|----------------------|
B|------------|-----------|----------------------|
G|-------11~\-|------12~\-|--15-15--13\12-10~\---|
D|--10~-------|--10-------|----------------------|
A|------------|-----------|----------------------|
E|------------|-----------|----------------------|

   1.18			           
e|----------------|--------------|-------------|
B|----------------|--------------|-------------|
G|-5--9-5-8-10-5~-|-5--9-5-8-10\-|-3-3-3-1-----|
D|----------------|--------------|---------3-3-|
A|----------------|--------------|-------------|
E|----------------|--------------|-------------|
                  1.33
e|--------------|-4-6-8-8--8-6-4---4-6~-|
B|--------------|---------------6-------|
G|-5--9-5-8-10\-|-----------------------|
D|--------------|-----------------------|
A|--------------|-----------------------|
E|--------------|-----------------------|
  1.41
e|-8--12-8-11-13-8~-|-8--12-8-11-13~-|-6-6-6-4-----|
B|------------------|----------------|---------6-6-|
G|------------------|----------------|-------------|
D|------------------|----------------|-------------|
A|------------------|----------------|-------------|
E|------------------|----------------|-------------|
                    1.55
e|-8--12-8-11-13~-|-13/-16-18/20-20-18-16----16-18~-|
B|----------------|-----------------------18--------|
G|----------------|---------------------------------|
D|----------------|---------------------------------|
A|----------------|---------------------------------|
E|----------------|---------------------------------|

Rythm:
*Loosely strum so you hit some open notes!
e|-------------|-------------|-------------|-------------|
B|-------------|-------------|-------------|-------------|
G|-------------|-------------|-------5--5~-|-------------|
D|----5-----4~-|-------5--5~-|----3--------|-------5--6~-|
A|-3-----3-----|----3--------|-1-----------|----3--------|
E|-------------|-1-----------|-------------|-1-----------|


e|-------------|-------------|-------------|-------------|
B|-------------|-------------|-------------|-------------|
G|-------------|-------------|-------5--5~-|-------------|
D|----5-----4~-|-------5--5~-|----3--------|-------5--6~-|
A|-3-----3-----|----3--------|-1-----------|----3--------|
E|-------------|-1-----------|-------------|-1-----------|

Also chuck in a couple of these chords for good measure

e|-------3--3--|--------8--8--|-------3--3-|-------8--8--|
B|-------4--4--|--------9--9--|-------4--4-|-------9--9--|
G|-5--5--5--5--|--10-10-10-10-|-5--5--5--5-|-10-10-10-10-|
D|-5--5--5--5--|--10-10-10-10-|-5--5--5--5-|-10-10-10-10-|
A|-3--3--------|--8--8--------|-3--3-------|-8--8--------|
E|-3--3--------|--8--8--------|-3--3-------|-8--8--------|
            
Submit corrections

comments powered by Disqus
↑ Back to top | Satriani Joe Tabs for Is There Love In Space. Lyrics for acoustic guitar and electric guitar. 1 Tablatures and chords are parodies/interpretations of the original songs. You may use it for private study, scholarship, research or language learning purposes only