>
 >
Home

Home Guitar Tabs

Satriani Joe - Home chords, tabs, tablatures, lyrics

Guitar lessons | Add/correct | Request | Top 50 tabs Artists:  A B C D E F G H I J K L M N O P Q R S T U V W X Y Z 0-9

Home Guitar Tabs – Satriani Joe

CD, Sheet music, Poster

Do you like Home? Share with your friends now
TabsTabs v2
This is how I play "Home"from JS's new selftitled album. Sorry, but this is
just the
first part, but it usually repeats, I'll transcribe the solo, but I need a
better
free tab writer. Anyone know how to get it? Also for the person who asked for 
"brother", I need a tab maker w/ch can transfer to notepad to finish it,k?



                                      home
                              from "joe satriani"
                                                                    Joe Satriani
                                                                   Transcrib
ed by 
                                                                    David
Arevalo
                                        
                                                                                
|-----------------------|-------------------------------------------------------
|-----------------------|-------------------------------------------------------
|--12/14-----12--12~~~--|--12/14~~~/16-----12~~~--------------12/14-----12------
|-----------------------|--------------------------/14~~~-----------------------
|-----------------------|-------------------------------------------------------
|-----------------------|-------------------------------------------------------
                                                                                

                                                                                
----------------------------------------------------|--15/17--15--15~~~--|------
----------------------------------------------------|--------------------|------
12~~~\11-----11h12p11-------------------------------|--------------------|------
-----------------------14--12-----12/14~~~--12--12--|--------------------|------
----------------------------------------------------|--------------------|------
----------------------------------------------------|--------------------|------
                                                                                

                                                                                
15/17--19--15~~~-------------------------|--15/17-----15--15~~~--15-----15------
------------------15/17-----15p13h15~~~--|--------------------------------------
-----------------------------------------|--------------------------------------
-----------------------------------------|--------------------------------------
-----------------------------------------|--------------------------------------
-----------------------------------------|--------------------------------------
                                                                                

                                                                                
/22~~~-----19--17-----15~~~--|-------------------------------|--22~~~--19-------
-----------------------------|--13/15~~~--13--12-------------|------------------
-----------------------------|--------------------14--12~~~--|------------------
-----------------------------|-------------------------------|------------------
-----------------------------|-------------------------------|------------------
-----------------------------|-------------------------------|------------------
                                                                                

              BU then BD                 BU then BD             BU then BD      
17--15~~~--|-------------------------------------------------|------------------
-----------|------------17p15~~~--17---------------17p15-----|------------------
-----------|-------------------------------------------------|------------16----
-----------|-------------------------------------------------|------------------
-----------|-------------------------------------------------|------------------
-----------|-------------------------------------------------|------------------
                                                                                

                                                                                
------------------------------------|-------------------------------------------
------------------------------------|-------------------------------------------
p14\12--14--12~~~-------------------|-------------------------------------------
-------------------14-----14p12~~~--|--12--10--12--12--10--12--12--10--12-------
------------------------------------|-------------------------------------------
------------------------------------|-------------------------------------------
                                                                                

                              legato                                            
-------------||---------------------------------------------------------|-------
-------------||---------------------------------------------------------|-------
12----------*||---------------------------------------------------------|-------
----12--10--*||--12~~~---------10h12p10p9~~~--10--9---------------------|-------
-------------||--------------------------------------12--10--12/14--10--|-------
-------------||---------------------------------------------------------|-------
                                                                                



==                           TABLATURE EXPLANATION                            ==

----------                            ----------
----5h8--- Hammeron                   ----(8)--- Ghost Note
----------                            ----------
----5p8--- Pulloff                    ----------

----------                            ----------
----5/8--- Slide Up                   -----x---- Dead Note
----------                            ----------
----5\8--- Slide Down                 ----------

----------                            ||------|| Repeat Start & End
----5~~~-- Vibrato                    ||*----*||
----------                            ||*----*||
David "Shredgod" Arevalo





Comments


Popular Satriani Joe tabs & chords
Always With Me Always With You Bass Tabs
Crystal Planet Bass Tabs
Love Thing 1 Bass Tabs
Always With You Tabs
If 1 Tabs
Lifestyle Tabs
Midnight 1 Tabs
The Extremist 1 Tabs
The Power Cosmic 2000 Part 2 Tabs
You Saved My Life (Solo) Tabs


Song lyrics



↑ Back to top | Tablatures and chords are parodies/interpretations of the original songs. You may use it for private study, scholarship, research or language learning purposes only
© 2014 AZChords.com Contact us | Privacy policy | DMCA | Add/correct tabs | Request tabs | Top 50 tabs