>
 >
Hands In The Air

Hands In The Air Guitar Tabs

Satriani Joe - Hands In The Air chords, tabs, tablatures, lyrics

Guitar lessons | Add/correct | Request | Top 50 tabs Artists:  A B C D E F G H I J K L M N O P Q R S T U V W X Y Z 0-9

Hands In The Air Guitar Tabs – Satriani Joe

CD, Sheet music, Poster

Do you like Hands In The Air? Share with your friends now
Tabs
Tuning: Dropped B BADGBE

| /  slide up
| \  slide down
| h  hammer-on
| p  pull-off
| ~  vibrato
| +  harmonic
| x  Mute note
| ^  Bend

Please note that this song is played in drop B tuning, yes drop B! Turn your E
string all the way down to B. Use the second fret of your A string, if you wish
to tune by ear, but remember this is an octave higher.
 
Intro:
                              p.m p.m p.m
e|--------------------------|-------------------------------|
B|--------------------------|-------------------------------|
G|--------------------------|-------------------------------|
D|--------------------------|-------------------------------|
A|------------2--2--0-2-----|-----------------2--2--0-2-----|
B|----0--3-0------------3-0-|---0-0-0-0-0-3-0-----------3-0-|
     p.m p.m p.m 		     p.m p.m p.m   1/2
e|-------------------------------|----------------------------|
B|-------------------------------|----------------------------|
G|-------------------------------|----------------------------|
D|-------------------------------|----------------------------|
A|-----------------2--2--0-2-----|-----------------2^2^2^-----|
B|---0-0-0-0-0-3-0-----------3-0-|---0-0-0-0-0-2-0--------0-0-|
    p.m p.m p.m	Enter Guitar II 0.13     p.m p.m p.m
e|-------------------------------|-------------------------------|
B|-------------------------------|-------------------------------|
G|-------------------------------|-------------------------------|
D|-------------------------------|-------------------------------|
A|-----------------2--2--0-2-----|-----------------2--2--0-2-----|
B|---0-0-0-0-0-3-0-----------3-0-|---0-0-0-0-0-3-0-----------3-0-|
     p.m p.m p.m		     p.m p.m p.m    1/2		p.m p.m p.m
e|-------------------------------|----------------------------|---------------|
B|-------------------------------|----------------------------|---------------|
G|-------------------------------|----------------------------|---------------|
D|-------------------------------|----------------------------|---------------|
A|-----------------2--2--0-2-----|-----------------2^2^2^-----|---------------|
B|---0-0-0-0-0-3-0-----------3-0-|---0-0-0-0-0-2-0--------0-0-|-0-0-0-0-0-3-0-|

Chorus:
Rhythm 0.26
e|----------------|-------------|----------------|-------------|
B|----------------|-------------|----------------|-------------|
G|----------------|-------------|----------------|-------------|
D|----------------|-------------|----------------|-------------|
A|----------------|---------0-2-|----------------|-5-2-0-------|
B|-9---5---3---0--|-0-3-5-7-----|-9---5---3---0--|-------7-5-3-|

e|----------------|-------------|----------------|-------------|----|
B|----------------|-------------|----------------|-------------|----|
G|----------------|-------------|----------------|-------------|----|
D|----------------|-------------|----------------|-------------|----|
A|----------------|---------0-2-|----------------|-5-2-0-------|----|
B|-9---5---3---0--|-0-3-5-7-----|-9---5---3---0--|-------7-5-3-|-0~-|

Lead 0.26
e|----------------|-------------|----------------|-------------|
B|----------------|-------------|----------------|-------------|
G|-13\-9----------|-------------|-13\-9----------|-------------|
D|---------12\-9--|-------------|---------12\-9--|-------------|
A|----------------|-------------|----------------|-------------|
B|----------------|-------------|----------------|-------------|

e|----------------|-------------|----------------|-------------|
B|----------------|-------------|----------------|-------------|
G|-13\-9----------|-------------|-13\-9----------|-------------|
D|---------12\-9--|-------------|---------12\-9--|-------------|
A|----------------|-------------|----------------|-------------|
B|----------------|-------------|----------------|-------------|

Main Riff:
This time with lead
Rhythm: 0.44  x2                         p.m p.m p.m
e|--------------------------|-------------------------------|
B|--------------------------|-------------------------------|
G|--------------------------|-------------------------------|
D|--------------------------|-------------------------------|
A|------------2--2--0-2-----|-----------------2--2--0-2-----|
B|----0--3-0------------3-0-|---0-0-0-0-0-3-0-----------3-0-|
     p.m p.m p.m 		     p.m p.m p.m   1/2
e|-------------------------------|----------------------------|
B|-------------------------------|----------------------------|
G|-------------------------------|----------------------------|
D|-------------------------------|----------------------------|
A|-----------------2--2--0-2-----|-----------------2^2^2^-----|
B|---0-0-0-0-0-3-0-----------3-0-|---0-0-0-0-0-2-0--------0-0-|
    p.m p.m p.m	Enter Guitar II     p.m p.m p.m
e|-------------------------------|-------------------------------|
B|-------------------------------|-------------------------------|
G|-------------------------------|-------------------------------|
D|-------------------------------|-------------------------------|
A|-----------------2--2--0-2-----|-----------------2--2--0-2-----|
B|---0-0-0-0-0-3-0-----------3-0-|---0-0-0-0-0-3-0-----------3-0-|
     p.m p.m p.m		     p.m p.m p.m    1/2		p.m p.m p.m
e|-------------------------------|----------------------------|---------------|
B|-------------------------------|----------------------------|---------------|
G|-------------------------------|----------------------------|---------------|
D|-------------------------------|----------------------------|---------------|
A|-----------------2--2--0-2-----|-----------------2^2^2^-----|---------------|
B|---0-0-0-0-0-3-0-----------3-0-|---0-0-0-0-0-2-0--------0-0-|-0-0-0-0-0-3-0-|

Lead: 0.46
e|----------------|--------------|----------------------------|
B|----------------|--------------|----------------------------|
G|----------------|--------------|----------------------------|
D|----9-7-9-12p9--|--------------|----9-7-9-12-9--------------|
A|----9-7-9-9-----|--------------|----9-7-9-12-9--------------|
B|----------------|--------------|----------------------------|

e|----------------|--------------|----------------------------|
B|----------------|--------------|----------------------------|
G|----------------|--------------|-----------------6^6^6^4----|
D|----9-7-9-12p9--|--------------|----------------------------|
A|----9-7-9-9-----|--------------|-------------------------2--|
B|----------------|--------------|----------------------------|
  0.57
e|--------------------------------|----------------------------------|
B|----------------12-12--10h12----|------------------12-12--10h12----|
G|------------x-x-----------------|--------------x-x-----------------|
D|----------x-x-x-------------12-9|----9-9-9-9-9-x-x-------------12-9|
A|--------------------------------|----------------------------------|
B|--------------------------------|----------------------------------|

e|--------------------------------|----------------------------------|
B|-----------------12-12--10h12---|----------------------------------|
G|--------------------------------|----------------------------------|
D|-------------x-x------------12-9|----------------------------------|
A|---9-9-9-7-9-x-x----------------|---9-9-9-7-9-11-9-11^11^11^-9-9---|
B|--------------------------------|----------------------------------|

Chorus:
Rhythm x2 1.10
e|----------------|-------------|----------------|-------------|
B|----------------|-------------|----------------|-------------|
G|----------------|-------------|----------------|-------------|
D|----------------|-------------|----------------|-------------|
A|----------------|---------0-2-|----------------|-5-2-0-------|
B|-9---5---3---0--|-0-3-5-7-----|-9---5---3---0--|-------7-5-3-|

e|----------------|-------------|----------------|-------------|
B|----------------|-------------|----------------|-------------|
G|----------------|-------------|----------------|-------------|
D|----------------|-------------|----------------|-------------|
A|----------------|---------0-2-|----------------|-5-2-0-------|
B|-9---5---3---0--|-0-3-5-7-----|-9---5---3---0--|-------7-5-3-|

e|----------------|-------------|----------------|-------------|
B|----------------|-------------|----------------|-------------|
G|----------------|-------------|----------------|-------------|
D|----------------|-------------|----------------|-------------|
A|----------------|---------0-2-|----------------|-5-2-0-------|
B|-9---5---3---0--|-0-3-5-7-----|-9---5---3---0--|-------7-5-3-|

e|----------------|-------------|----------------|-------------|----|
B|----------------|-------------|----------------|-------------|----|
G|----------------|-------------|----------------|-------------|----|
D|----------------|-------------|----------------|-------------|----|
A|----------------|---------0-2-|----------------|-5-2-0-------|----| 
B|-9---5---3---0--|-0-3-5-7-----|-9---5---3---0--|-------7-5-3-|-0~-|

Lead x2 1.10
e|----------------|-------------|---------21\-19-|-------------|
B|----------------|-------------|----------------|-------------|
G|-13\-9----------|-------------|-13\-9----------|-------------|
D|---------12\-9--|-------------|----------------|-------------|
A|----------------|-------------|----------------|-------------|
B|----------------|-------------|----------------|-------------|

e|----------------|-------------|----------------|-------------|
B|----------------|-------------|----------------|-------------|
G|-13\-9----------|-------------|-13\-9----------|-------------|
D|---------12\-9--|-------------|---------12\-9--|-------------|
A|----------------|-------------|----------------|-------------|
B|----------------|-------------|----------------|-------------|

e|----------------|-------------|---------21\-19-|-------------|
B|----------------|-------------|----------------|-------------|
G|-13\-9----------|-------------|-13\-9----------|-------------|
D|---------12\-9--|-------------|----------------|-------------|
A|----------------|-------------|----------------|-------------|
B|----------------|-------------|----------------|-------------|

e|----------------|-------------|----------------|-------------|
B|----------------|-------------|----------------|-------------|
G|-13\-9----------|-------------|-13\-9----------|-------------|
D|---------12\-9--|-------------|---------12\-9--|-------------|
A|----------------|-------------|----------------|-------------|
B|----------------|-------------|----------------|-------------|

Lead II 1.25
Comes in after 4 bars
e|-19-17-19-(17)--|-19-17-19----|-19-17-19-22~---|
B|----------------|-------------|----------------|
G|----------------|-------------|----------------|
D|----------------|-------------|----------------|
A|----------------|-------------|----------------|
B|----------------|-------------|----------------|

e|-7/-19-17-19----|-19-17-19-17-19-|-------------|
B|----------------|----------------|-17---17-19~-|
G|----------------|----------------|-------------|
D|----------------|----------------|-------------|
A|----------------|----------------|-------------|
B|----------------|----------------|-------------|

e|-7/-19-17-19----|-19-17-19--19-17-|---19-------|
B|----------------|-----------------|-------17~--|
G|----------------|-----------------|------------|
D|----------------|-----------------|------------|
A|----------------|-----------------|------------|
B|----------------|-----------------|------------|

e|-7/-19-17-19----|-19-17-19-17-19-|-------------|
B|----------------|----------------|-17---19~----|
G|----------------|----------------|-------------|
D|----------------|----------------|-------------|
A|----------------|----------------|-------------|
B|----------------|----------------|-------------|

Solo 1
Lead: 1.41

e|--------------------------------|------------------------|
B|-10/12-12-12-10----10-----------|------------------------|
G|----------------11---11-9-11-11-|---9-9-9-11p9-----------|
D|--------------------------------|--------------12-9----9-|
A|--------------------------------|-------------------12---|
B|--------------------------------|------------------------|

e|--------------------------------|------------------------|
B|-10/12-12-12-10----10-----------|------------------------|
G|----------------11---11-9-11-11-|---9-9-9-11p9-----------|
D|--------------------------------|--------------12-9----9-|
A|--------------------------------|-------------------12---|
B|--------------------------------|------------------------|

e|--------------------------------|------------------------|
B|-10/12-12-12-10----10-----------|------------------------|
G|----------------11---11-9-11-11-|---9-9-9-11p9-----------|
D|--------------------------------|--------------12-9----9-|
A|--------------------------------|-------------------12---|
B|--------------------------------|------------------------|

e|--------------------------------|------------------------|
B|-10/12-12-12-10----10-----------|------------------------|
G|----------------11---11-9-11-11-|---9-9-9-11p9-----------|
D|--------------------------------|--------------12-9----9-|
A|--------------------------------|-------------------12---|
B|--------------------------------|------------------------|

Theme 2:
Rhythm 2.08
	p.m		  p.m
e|--7---------------7-|---------------7-|---------------------------7-|
B|--5-5-------------5-|-5-------------5-|-5-------------------------5-|
G|--4-4-------------4-|-4-------------4-|-4-------------------------4-|
D|--------------------|-----------------|-----------------------------|
A|------2-2-2-2-2-2---|---2-2-2-2-2-2---|---3-3-3-3-3-3---------5-5---|
B|------5-5-5-5-5-5-5-|---5-5-5-5-5-5-5-|---5-5-5-5-5-5-0-3-3-0-8-8---|

	p.m		  p.m
e|--7---------------7-|---------------7-|---------------------------7-|
B|--5-5-------------5-|-5-------------5-|-5-------------------------5-|
G|--4-4-------------4-|-4-------------4-|-4-------------------------4-|
D|--------------------|-----------------|-----------------------------|
A|------2-2-2-2-2-2---|---2-2-2-2-2-2---|---3-3-3-3-3-3---------5-5---|
B|------5-5-5-5-5-5-5-|---5-5-5-5-5-5-5-|---5-5-5-5-5-5-0-3-3-0-8-8---|

Solo 2
Legato 2.21
e|-----------------|-----------------|-----------------|-------------------------|
B|-----------------|-----------------|-----------------|-------------------------|
G|-----------------|-----------------|-----------------|-------4-7-4-5-4---4-----|
D|-------4-7-4-5-4-|-------4-7-4-5-4-|-------4-7-4-5-4-|-4-5-7-----------7---7-5-|
A|-4-5-7-----------|-4-5-7-----------|-4-5-7-----------|-------------------------|
B|-----------------|-----------------|-----------------|-------------------------|
							Whammy Bar 2.34
e|-----------------|-----------------|-----------------|-12--0--19----|
B|-----------------|-----------------|-----------------|--\-/---\/----|
G|-----------------|-----------------|-----------------|------------9-|
D|-------4-7-4-5-4-|-------4-7-4-5-4-|-------4-7-4-5-4-|--------------|
A|-4-5-7-----------|-4-5-7-----------|-4-5-7-----------|------------7-|
B|-----------------|-----------------|-----------------|--------------|

e|------------12--0--19----|-------------12--0--19----|-------------12--0--19---|
B|-------------\-/---\/----|--------------\-/---\/----|-----17--15---\-/---\/---|
G|-----9--7-9------------9-|------x-x-12------------9-|-----------------------9-|
D|-------------------------|------x-x-----------------|-------------------------|
A|-7---------------------7-|--7---x-----------------7-|-7---------------------7-|
B|-------------------------|--------------------------|-------------------------|
2.17 Hammer on and pull of each note, i have left out notation out for better clarity
e|------------|--------------------------------------------|-------------------|
B|---------16-|-8-10-12-10-8-------------------------------|----------15--19---|
G|----x-x-----|--------------11-9--9-7-6-----------------9-|---9---------------|
D|----x-x-----|--------------------------9-8--7-8-7--------|-------------------|
A|-7----------|-------------------------------------10-7-7-|---7--7------------|
B|------------|--------------------------------------------|-------------------|

e|------------------------------------------|------------------------------------------|
B|------------------------------------------|------15--15--12-11-12-11--11^--12-11-10^-|
G|-12-11-12-11-9----------------------------|------------------------------------------|
D|---------------9-11-12-11-9-------------7-|------------------------------------------|
A|----------------------------13-12-10-7----|-2----------------------------------------|
B|------------------------------------------|------------------------------------------|
					Slide
e|--------------5/22\12---------------------------------------------5+--|
B|-12-11-10^------------------------------------------------------------|
G|----------------------------------------------------------------------|
D|----------------------------------------------------------------------|
A|-----------------------22212019181716151413121110987654321012345------|
B|-----------------------22212019181716151413121110987654321012345------|

Main Riff

Main Riff:
3.00
Rhythm:   x2                         p.m p.m p.m
e|--------------------------|-------------------------------|
B|--------------------------|-------------------------------|
G|--------------------------|-------------------------------|
D|--------------------------|-------------------------------|
A|------------2--2--0-2-----|-----------------2--2--0-2-----|
B|----0--3-0------------3-0-|---0-0-0-0-0-3-0-----------3-0-|
     p.m p.m p.m 		     p.m p.m p.m   1/2
e|-------------------------------|----------------------------|
B|-------------------------------|----------------------------|
G|-------------------------------|----------------------------|
D|-------------------------------|----------------------------|
A|-----------------2--2--0-2-----|-----------------2^2^2^-----|
B|---0-0-0-0-0-3-0-----------3-0-|---0-0-0-0-0-2-0--------0-0-|
    p.m p.m p.m	Enter Guitar II     p.m p.m p.m
e|-------------------------------|-------------------------------|
B|-------------------------------|-------------------------------|
G|-------------------------------|-------------------------------|
D|-------------------------------|-------------------------------|
A|-----------------2--2--0-2-----|-----------------2--2--0-2-----|
B|---0-0-0-0-0-3-0-----------3-0-|---0-0-0-0-0-3-0-----------3-0-|
     p.m p.m p.m		     p.m p.m p.m    1/2		p.m p.m p.m
e|-------------------------------|----------------------------|---------------|
B|-------------------------------|----------------------------|---------------|
G|-------------------------------|----------------------------|---------------|
D|-------------------------------|----------------------------|---------------|
A|-----------------2--2--0-2-----|-----------------2^2^2^-----|---------------|
B|---0-0-0-0-0-3-0-----------3-0-|---0-0-0-0-0-2-0--------0-0-|-0-0-0-0-0-3-0-|

Lead: 3.02
e|----------------|--------------|----------------------------|
B|----------------|--------------|----------------------------|
G|----------------|--------------|----------------------------|
D|----9-7-9-12p9--|--------------|----9-7-9-12-9--------------|
A|----9-7-9-9-----|--------------|----9-7-9-12-9--------------|
B|----------------|--------------|----------------------------|

e|----------------|--------------|----------------------------|
B|----------------|--------------|----------------------------|
G|----------------|--------------|-----------------6^6^6^4----|
D|----9-7-9-12p9--|--------------|----------------------------|
A|----9-7-9-9-----|--------------|-------------------------2--|
B|----------------|--------------|----------------------------|

e|--------------------------------|----------------------------------|
B|----------------12-12--10h12----|------------------12-12--10h12----|
G|------------x-x-----------------|--------------x-x-----------------|
D|----------x-x-x-------------12-9|----9-9-9-9-9-x-x-------------12-9|
A|--------------------------------|----------------------------------|
B|--------------------------------|----------------------------------|

e|--------------------------------|----------------------------------|
B|-----------------12-12--10h12---|----------------------------------|
G|--------------------------------|----------------------------------|
D|-------------x-x------------12-9|----------------------------------|
A|---9-9-9-7-9-x-x----------------|---9-9-9-7-9-11-9-11^11^11^-9-9---|
B|--------------------------------|----------------------------------|

Chorus:
Rhythm x2 3.26
e|----------------|-------------|----------------|-------------|
B|----------------|-------------|----------------|-------------|
G|----------------|-------------|----------------|-------------|
D|----------------|-------------|----------------|-------------|
A|----------------|---------0-2-|----------------|-5-2-0-------|
B|-9---5---3---0--|-0-3-5-7-----|-9---5---3---0--|-------7-5-3-|

e|----------------|-------------|----------------|-------------|
B|----------------|-------------|----------------|-------------|
G|----------------|-------------|----------------|-------------|
D|----------------|-------------|----------------|-------------|
A|----------------|---------0-2-|----------------|-5-2-0-------|
B|-9---5---3---0--|-0-3-5-7-----|-9---5---3---0--|-------7-5-3-|

e|----------------|-------------|----------------|-------------|
B|----------------|-------------|----------------|-------------|
G|----------------|-------------|----------------|-------------|
D|----------------|-------------|----------------|-------------|
A|----------------|---------0-2-|----------------|-5-2-0-------|
B|-9---5---3---0--|-0-3-5-7-----|-9---5---3---0--|-------7-5-3-|

e|----------------|-------------|----------------|-------------|----|
B|----------------|-------------|----------------|-------------|----|
G|----------------|-------------|----------------|-------------|----|
D|----------------|-------------|----------------|-------------|----|
A|----------------|---------0-2-|----------------|-5-2-0-------|----| 
B|-9---5---3---0--|-0-3-5-7-----|-9---5---3---0--|-------7-5-3-|-0~-|

Lead x2 3.26
e|----------------|-------------|---------21\-19-|-------------|
B|----------------|-------------|----------------|-------------|
G|-13\-9----------|-------------|-13\-9----------|-------------|
D|---------12\-9--|-------------|----------------|-------------|
A|----------------|-------------|----------------|-------------|
B|----------------|-------------|----------------|-------------|

e|----------------|-------------|----------------|-------------|
B|----------------|-------------|----------------|-------------|
G|-13\-9----------|-------------|-13\-9----------|-------------|
D|---------12\-9--|-------------|---------12\-9--|-------------|
A|----------------|-------------|----------------|-------------|
B|----------------|-------------|----------------|-------------|

e|----------------|-------------|---------21\-19-|-------------|
B|----------------|-------------|----------------|-------------|
G|-13\-9----------|-------------|-13\-9----------|-------------|
D|---------12\-9--|-------------|----------------|-------------|
A|----------------|-------------|----------------|-------------|
B|----------------|-------------|----------------|-------------|

e|----------------|-------------|----------------|-------------|
B|----------------|-------------|----------------|-------------|
G|-13\-9----------|-------------|-13\-9----------|-------------|
D|---------12\-9--|-------------|---------12\-9--|-------------|
A|----------------|-------------|----------------|-------------|
B|----------------|-------------|----------------|-------------|

Lead II
Comes in after 4 bars
e|-19-17-19-(17)--|-19-17-19----|-19-17-19-22~---|
B|----------------|-------------|----------------|
G|----------------|-------------|----------------|
D|----------------|-------------|----------------|
A|----------------|-------------|----------------|
B|----------------|-------------|----------------|

e|-7/-19-17-19----|-19-17-19-17-19-|-------------|
B|----------------|----------------|-17---17-19~-|
G|----------------|----------------|-------------|
D|----------------|----------------|-------------|
A|----------------|----------------|-------------|
B|----------------|----------------|-------------|

e|-7/-19-17-19----|-19-17-19--19-17-|---19-------|
B|----------------|-----------------|-------17~--|
G|----------------|-----------------|------------|
D|----------------|-----------------|------------|
A|----------------|-----------------|------------|
B|----------------|-----------------|------------|

e|-7/-19-17-19----|-19-17-19-17-19-|-------------|
B|----------------|----------------|-17---19~----|
G|----------------|----------------|-------------|
D|----------------|----------------|-------------|
A|----------------|----------------|-------------|
B|----------------|----------------|-------------|


Outro: 3.58

e|--------------------------------|------------------------|
B|-10/12-12-12-10----10-----------|------------------------|
G|----------------11---11-9-11-11-|---9-9-9-11p9-----------|
D|--------------------------------|--------------12-9----9-|
A|--------------------------------|-------------------12---|
B|--------------------------------|------------------------|

e|--------------------------------|------------------------|
B|-10/12-12-12-10----10-----------|------------------------|
G|----------------11---11-9-11-11-|---9-9-9-11p9-----------|
D|--------------------------------|--------------12-9----9-|
A|--------------------------------|-------------------12---|
B|--------------------------------|------------------------|

e|--------------------------------|------------------------|
B|-10/12-12-12-10----10-----------|------------------------|
G|----------------11---11-9-11-11-|---9-9-9-11p9-----------|
D|--------------------------------|--------------12-9----9-|
A|--------------------------------|-------------------12---|
B|--------------------------------|------------------------|

e|--------------------------------|------------------------|
B|-10/12-12-12-10----10-----------|------------------------|
G|----------------11---11-9-11-11-|---9-9-9-11p9-----------|
D|--------------------------------|--------------12-9----9-|
A|--------------------------------|-------------------12---|
B|--------------------------------|------------------------|

                              
e|--------------------------|-------------------------------|
B|--------------------------|-------------------------------|
G|--------------------------|-------------------------------|
D|--------------------------|-------------------------------|
A|------------2--2--0-2-----|-------------------------------|
B|----0--3-0------------3-0-|---0---------------------------|





Comments


Popular Satriani Joe tabs & chords
Love Thing Bass Tabs
Always With Me Tabs
Circles Tabs
Ice 9 Tabs
Lights Of Heaven Tabs
Rubina Tabs
Satch Boogie Tabs
Surfing With The Alien 1 Tabs
The Forgottenpart1 Tabs
Top Gun Anthem (Solo) Tabs


Song lyrics



↑ Back to top | Tablatures and chords are parodies/interpretations of the original songs. You may use it for private study, scholarship, research or language learning purposes only
© 2014 AZChords.com Contact us | Privacy policy | DMCA | Add/correct tabs | Request tabs | Top 50 tabs