>
 >
Gnaahh

Gnaahh Guitar Tabs

Satriani Joe - Gnaahh chords, tabs, tablatures, lyrics

Guitar lessons | Add/correct | Request | Top 50 tabs Artists:  A B C D E F G H I J K L M N O P Q R S T U V W X Y Z 0-9

Gnaahh Guitar Tabs – Satriani Joe

CD, Sheet music, Poster

Do you like Gnaahh? Share with your friends now
Tabs
Tuning: Standard

| /  slide up
| \  slide down
| h  hammer-on
| p  pull-off
| ~  vibrato
| +  harmonic
| x  Mute note
| ^  Bend
| #  Depress Whammy Bar
| t  Fret Tap

Intro - Rhythm
         0.01
e|------|-----------------------------|--------------------------------------|
B|------|-----------------------------|--------------------------------------|
G|------|-9--9--10-9--9-9--9--10-9--9-|9--9--10-9--9-9--x-12-12-12-12-12-12--|
D|------|-9--9--10-9--9-9--9--10-9--9-|9--9--10-9--9-9--x-12-12-12-12-12-12--| x8
A|------|-7--7--8--7--7-7--7--8--7--7-|7--7--8--7--7-7--x-10-10-10-10-10-10--|
E|------|-----------------------------|--------------------------------------|
Lead
e|------|-----------------------------|----3--/-/--15~-----------------------|
B|------|-----------------------------|--------------------------------------|
G|------|-----------------------------|--------------------------------------|
D|------|-----------------------------|--------------------------------------| x8
A|------|-----------------------------|--------------------------------------|
E|------|-----------------------------|--------------------------------------|

Lead - First Solo
  0.33
e|---------------|------------------------|-----|-------------|------------------|
B|---------------|------------------------|-----|-------------|------------------|
G|---------------|------------------------|-12#-|-------------|------------------|
D|---------7--5--|-------7-7/9-7/9--10-9~-|-----|-------7--5~-|--5-7-5-----------|
A|--7--10--------|--7-10------------------|-----|-7--10-------|--------7p5h7h8p7~|
E|---------------|------------------------|-----|-------------|------------------|
	    0.47
e|--------|------------------15------|--------------|----------------------------|
B|--------|--------------------------|--------------|----------------------------|
G|--------|--------------12----12----|--------------|-----------------9-7--------|
D|--------|--------12-14----------15-|--------7--5~-|------7-7/9-7/9-----10-9-7~-|
A|-8-\-5~-|--10-12-------------------|-7--10--------|-7-10-----------------------|
E|--------|--------------------------|--------------|----------------------------|
				    1.04 Natural Harmonic
e|-----|-------------|-------------------5+~--|----------------------------------|
B|-----|-------------|-------------------5+~--|----------------------------------|
G|-12#-|-------------|-------------------5+~--|----------------------------------|
D|-----|-------7--5~-|-5-7-5-------------5+~--|----------------------------------|
A|-----|-10-12-------|-------7p5h7h8p7~--5+~--|----------------------------------|
E|-----|-------------|-------------------5+~--|----------------------------------|

Intro Riff
         1.06
e|------|-----------------------------|--------------------------------------|
B|------|-----------------------------|--------------------------------------|
G|------|-9--9--10-9--9-9--9--10-9--9-|9--9--10-9--9-9--x-12-12-12-12-12-12--|
D|------|-9--9--10-9--9-9--9--10-9--9-|9--9--10-9--9-9--x-12-12-12-12-12-12--| x8
A|------|-7--7--8--7--7-7--7--8--7--7-|7--7--8--7--7-7--x-10-10-10-10-10-10--|
E|------|-----------------------------|--------------------------------------|
Lead	      Wah- Wah
e|------|-----------------------------|----3--/-/--15~-----------------------|
B|------|--------/-\------------------|--------------------------------------|
G|------|------/----\-----------------|--------------------------------------|
D|------|----/-------\----------------|--------------------------------------| x8
A|------|--/----------\---------------|--------------------------------------|
E|------|-0-0-0-0-0-0-0-0-------------|--------------------------------------|

Second Solo
  Rhythm
e|--------------|--------------|------------|-------------|
B|--------------|--------------|------------|-------------|
G|--------9-----|--------9-----|-------5----|-------5-----|
D|------8---8---|------8---8---|-----4---4--|-----4---4---| x2
A|---10------10-|---10------10-|---6------6-|---6-------6-|
E|-8------------|-8------------|-4----------|-4-----------|
  Lead - With some serious distortion and heavy Wah-Wah
e|-------------------------|----------|-----------------------|
B|-------------------------|----------|-----------------------|
G|-------------------------|----------|----------3------------|
D|--4---3--1--5-4-3--1--4~-|-5-\--17~-|-5--4--3-----5-4-3--4~-|
A|-------------------------|-6- \-18~-|-----------------------|
E|-------------------------|----------|-----------------------|
  Random Flutter of notes
e|--------------------------------------|------------------------------------|
B|--------------------------------------|------------------------------------|
G|--------------------------------------|------------------------------------|
D|-0-1718-0-1617-0-1416-0-1214-0-1012-9-|------------------------------------|
A|--------------------------------------|------------------------------------|
E|--------------------------------------|------------------------------------|
  1.37 Legato theme
e|-------------------------------------------------------|
B|-------------------------------------------------------|
G|----------------7-------------------------7------------|
D|----------7-8-9---9-8-7-------------7-8-9---9-8-7------|
A|-----7-10--------------10------7-10---------------10---|
E|-7-10---------------------7-10-----------------------7-|

e|----------------------------------------------------------|
B|----------------------------------------------------------|
G|---------------7----------------7----------------7--------|
D|---------7-8-9---9-8-7----7-8-9---9-8-7----7-8-9---9-8----|
A|----7-10---------------10---------------10-------------10-|
E|-7--------------------------------------------------------|

e|----------------------------------------------------------|
B|----------------------------------------------------------|
G|------------------7---------------------------7-----------|
D|------------7-8-9---9-8-7---------------7-8-9---9-8-7-----|
A|------7-10----------------10------7--10---------------10--|
E|-7-10------------------------7--10------------------------|

e|----------------------------------------------------------|
B|----------------------------------------------------------|
G|---------------7----------------7----------------7--------|
D|---------7-8-9---9-8-7----7-8-9---9-8-7----7-8-9---9-8----|
A|----7-10---------------10---------------10-------------10-|
E|-7--------------------------------------------------------|

e|-------------------------------------------------|
B|-------------------------------------------------|
G|----------7-9-12-9-7-------7---------------7-----|
D|------7-9------------7-8-9---9-8-7---7-8-9---9-7-|
A|-7-10-----------------------------10-------------|
E|-------------------------------------------------|

e|-------------------------------------------------|
B|-------------------------------------------------|
G|----------7-9-12-9-7-------7---------------7-----|
D|------7-9------------7-8-9---9-8-7---7-8-9---9-7-|
A|-7-10-----------------------------10-------------|
E|-------------------------------------------------|

e|-------------------------------------------------------|
B|-------------------------------------------------------|
G|----------------7-------------------------7------------|
D|----------7-8-9---9-8-7-------------7-8-9---9-8-7------|
A|-----7-10--------------10------7-10---------------10---|
E|-7-10---------------------7-10-----------------------7-|

e|----------------------------------------------------------|
B|----------------------------------------------------------|
G|---------------7----------------7----------------7--------|
D|---------7-8-9---9-8-7----7-8-9---9-8-7----7-8-9---9-8----|
A|----7-10---------------10---------------10-------------10-|
E|-7--------------------------------------------------------|
  1.53
e|------------------------------------------------------------------|
B|------------------------------------------------------------------|
G|------------------------------------------------------------------|
D|------------------5-------------------------------6---------------|
A|----------6-7-8-9--9-8-7-6---------------7-8-9-10--10-9-8-7-------|
E|-7-8-9-10------------------10-9-8-9-10-11-------------------11-10-|

e|--------------------------------------------------------------------------------|
B|--------------------------------------------------------------------------------|
G|--------------------------------------------------------------------------------|
D|----------------------7---------------------------------------8-----------------|
A|------------8-9-10-11---11-10-9-8------------------9-10-11-12--12-11-10-9-------|
E|-9-10-11-12----------------------12-11-10-11-12-13------------------------13-12-|

e|--------------------------------------------------------------------------------------|
B|--------------------------------------------------------------------------------------|
G|--------------------------------------------------------------------------------------|
D|-------------------------9----------------------------------------10------------------|
A|-------------10-11-12-13--13-12-11-10------------------11-12-13-14--14-13-12-11-------|
E|-11-12-13-14--------------------------14-13-12-13-14-15-------------------------15-14-|

e|--------------------------------------------------------------------------------------|
B|--------------------------------------------------------------------------------------|
G|--------------------------------------------------------------------------------------|
D|------------------------11----------------------------------------12------------------|
A|------------12-13-14-15---15-14-13-12------------------12-14-15-16--16-15-14-13-------|
E|-13-14-15-16--------------------------16-15-14-15-16-17------------------------17-16~-|

  2.01
e|------12-15-12---------------------------------------------|
B|-12-15--------15-10-12-15-12-------------------------------|
G|-----------------------------14---12-14-12-----------------|
D|-------------------------------14----------14-12-------14~-|
A|-------------------------------------------------14-12-----|
E|-----------------------------------------------------------|

e|------12-15-12---------------------------------------------|
B|-12-15--------15-10-12-15-12-------------------------------|
G|-----------------------------14---12-14-12-----------------|
D|-------------------------------14----------14-12-------14~-|
A|-------------------------------------------------14-12-----|
E|-----------------------------------------------------------|

e|------12-15-12---------------------------------------------|
B|-12-15--------15-10-12-15-12-------------------------------|
G|-----------------------------14---12-14-12-----------------|
D|-------------------------------14----------14-12-------14~-|
A|-------------------------------------------------14-12-----|
E|-----------------------------------------------------------|

e|------12-15-12---------------------------------------------|
B|-12-15--------15-10-12-15-12-------------------------------|
G|-----------------------------14---12-14-12-----------------|
D|-------------------------------14----------14-12-------14~-|
A|-------------------------------------------------14-12-----|
E|-----------------------------------------------------------|

e|------12-15-12---------------------------------------------|
B|-12-15--------15-10-12-15-12-------------------------------|
G|-----------------------------14---12-14-12-----------------|
D|-------------------------------14----------14-12-------14~-|
A|-------------------------------------------------14-12-----|
E|-----------------------------------------------------------|

e|------12-15-12-----------------------------------------------------------|
B|-12-15--------15-10-12-15-12---------------------------------------------|
G|-----------------------------14---12-14-12-------------------------------|
D|-------------------------------14----------14-12-------14-12-------------|
A|-------------------------------------------------14-12-------14-12-------|
E|-------------------------------------------------------------------15-12-|

2.09 t   t   t   t         t   t   t  t
e|-202120212021202118~-|-171817181718171817~-|-181715141214151412111211-9-|
B|---------------------|---------------------|----------------------------|
G|---------------------|---------------------|----------------------------|
D|---------------------|---------------------|----------------------------|
A|---------------------|---------------------|----------------------------|
E|---------------------|---------------------|----------------------------|

e|-14-12-11-12-11-9-11-9-8-9-8-6-8-6-5-3-2-3-2-|-2-3-5-5^-|--5^---5^------|
B|---------------------------------------------|----------|---------------|
G|---------------------------------------------|----------|---------------|
D|---------------------------------------------|----------|---------------|
A|---------------------------------------------|----------|---------------|
E|---------------------------------------------|----------|---------------|
  2.18
e|------------8#----13#----22#^--|----------------------------------------|
B|---10#-------------------------|----------------------------------------|
G|-0-------0-----0------0--------|----------------------------------------|
D|-------------------------------|----------------------------------------|
A|-------------------------------|----------------------------------------|
E|-------------------------------|----------------------------------------|
  
  2.26
e|---------------|------------------------|-----|-------------|------------------|
B|---------------|------------------------|-----|-------------|------------------|
G|---------------|------------------------|-12#-|-------------|------------------|
D|---------7--5--|-------7-7/9-7/9--10-9~-|-----|-------7--5~-|--5-7-5-----------|
A|--7--10--------|--7-10------------------|-----|-7--10-------|--------7p5h7h8p7~|
E|---------------|------------------------|-----|-------------|------------------|
              Low E Dive Bomb	    
e|--------|---------V----------------|--------------|----------------------------|
B|--------|--------------------------|--------------|----------------------------|
G|--------|--------------------------|--------------|-----------------9-7--------|
D|--------|--------------------------|--------------|------7-7/9-7/9-----10-9-7~-|
A|-8-\-5~-|--------------------------|-7--10--------|-7-10-----------------------|
E|--------|----0#--------------------|--------------|----------------------------|
				     Natural Harmonic
e|-----|-------------|-------------------5+~--|----------------------------------|
B|-----|-------------|-------------------5+~--|----------------------------------|
G|-12#-|-------------|-------------------5+~--|----------------------------------|
D|-----|-------7--5~-|-5-7-5-------------5+~--|----------------------------------|
A|-----|-10-12-------|-------7p5h7h8p7~--5+~--|----------------------------------|
E|-----|-------------|-------------------5+~--|----------------------------------|

  Rhythm
e|------|-----------------------------|--------------------------------------|
B|------|-----------------------------|--------------------------------------|
G|------|-9--9--10-9--9-9--9--10-9--9-|9--9--10-9--9-9--x-12-12-12-12-12-12--|
D|------|-9--9--10-9--9-9--9--10-9--9-|9--9--10-9--9-9--x-12-12-12-12-12-12--| x8
A|------|-7--7--8--7--7-7--7--8--7--7-|7--7--8--7--7-7--x-10-10-10-10-10-10--|
E|------|-----------------------------|--------------------------------------|
  Lead	      Wah- Wah
e|------|-----------------------------|----3--/-/--15~-----------------------|
B|------|--------/-\------------------|--------------------------------------|
G|------|------/----\-----------------|--------------------------------------|
D|------|----/-------\----------------|--------------------------------------| x8
A|------|--/----------\---------------|--------------------------------------|
E|------|-0-0-0-0-0-0-0-0-------------|--------------------------------------|

Fade Out ---- End





Comments


Popular Satriani Joe tabs & chords
Lights Of Heaven Bass Tabs
Lights Of Heaven 1 Bass Tabs
Tear In The Rain 1 Bass Tabs
Crushing Day (Intro) Tabs
Ice 9 Tabs
Midnigth Tabs
Raspberry Jam Delta V Tabs
The Power Cosmic 2000 Part 2 Tabs
Up In The Sky Tabs
You Saved My Life (Solo) Tabs


Song lyrics



↑ Back to top | Tablatures and chords are parodies/interpretations of the original songs. You may use it for private study, scholarship, research or language learning purposes only
© 2014 AZChords.com Contact us | Privacy policy | DMCA | Add/correct tabs | Request tabs | Top 50 tabs