>
 >
Crystal Planet

Crystal Planet Bass Tabs

Satriani Joe - Crystal Planet chords, tabs, tablatures, lyrics

Guitar lessons | Add/correct | Request | Top 50 tabs Artists:  A B C D E F G H I J K L M N O P Q R S T U V W X Y Z 0-9

Crystal Planet Bass Tabs – Satriani Joe

CD, Sheet music, Poster

Do you like Crystal Planet? Share with your friends now
Bass TabsBass Tabs v2Tabs
CRYSTAL PLANET
By Joe Satrini




I play it on 4-String Bass Guitar with standard tune.
Here, it is exactly like what you hear.

				              CRYSTAL PLANET
						   BY
					       JOE SATRIANI

G ||---------|---------|-----------|-
D ||---7/9---|---------|-----------|-
A ||---------|---------|-----------|-
E ||---------|---5/7---|---7/12\---|-

     Play 2 times
G ||---------------|-------------|-------------|----------------|
D ||---------------|-------------|-------------|-------00-------|
A ||---2-2-2--2-00-|-2-2-2--2-00-|-2-2-2--2-00-|-2-2------00----|
E ||---------------|-------------|-------------|----------------|


G ||----------
D ||----------
A ||----------
E ||--7/12\---


       Play 4 times				      Play 2 times
G ||---------------|---------------|---------------|---------------||
D ||---------------|---------------|---------------|---------------||
A ||---2-2-2--2-00-|---------------|---------------|--2-2-2--2-00--||
E ||---------------|--3-3-3--333---|--0-0-0--000---|---------------||*2



G ||--------------------------|---------------------------|---------------------------|-------------------------|
D ||--------------------------|---------------------------|---------------------------|-------------------------|
A ||--------------------------|--7-7-7--777--7-7-7--77-0--|---------------------------|-------------------------|
E ||--8-8-8--888--8-8-8--888--|---------------------------|--7-7-7--777--7-7-7--777---|-3-3-3--333--3-3-3--333--|



G ||--------------|------------|------------|------------|------------|-----------|------------|
D ||--------------|------------|------------|------------|------------|-----------|------------|
A ||--------------|-5-5-5--555-|------------|------------|-7-7-7--777-|-5-5-5--00-|------------|
E ||--7-7-7--777--|------------|-3-3-3--333-|-5-5-5--555-|------------|-----------|-7-7-7--777-|


     Play it Slap
G ||--------------2^4--|
D ||-------------------|
A ||--2-2-0------------|
E ||--------3----------|


  Enter with Drums and Slap the next part
G ||----------------|--------------------|-
D ||----------------|--5-----------------|-
A ||---7/12\5-------|-7-----7--7--7------|-
E ||----------------|------0--0--0---0---|-

G ||----------
D ||----------
A ||---12\7---
E ||----------


    Play 8 times
G ||-----------------------------------|-
D ||-----------------------------------|-
A ||--7-7-7---7-10-10---7-7-7---7-5-5--|-
E ||-----------------------------------|-
     
G ||---------------|---------------|---------------|---------------|-
D ||---------------|---------------|---------------|---------------|-
A ||--2-2-2--2-3-3-|--2-2-2--2-3-3-|--0-0-0--0-3-3-|--0-0-0--0-3-3-|-
E ||---------------|---------------|---------------|---------------|-

G ||-----------------------------------|------------------------------|-----
D ||-----------------------------------|------------------------------|-----
A ||--7-7-7---7-10-10---7-7-7---7-5-5--|--7-7-7---7-10-10---7-7-7--7--|-----
E ||-----------------------------------|----------------------------7-|-(7)-


G ||-------------|---------------|------------
D ||-------------|-----7---9-----|------------
A ||---2---------|---7---7---0---|---(0)------
E ||-------------|---------------|------------



G ||--------------------------|---------------------------|---------------------------|-------------------------|
D ||--------------------------|---------------------------|---------------------------|-------------------------|
A ||--------------------------|--7-7-7--777--7-7-7--77-0--|---------------------------|-------------------------|
E ||--8-8-8--888--8-8-8--888--|---------------------------|--7-7-7--777--7-7-7--777---|-3-3-3--333--3-3-3--333--|


G ||--------------|------------|------------|------------|------------|-----------|------------|------------|-----------|-----------|-------------|-
D ||--------------|------------|------------|------------|------------|-----------|------------|------------|-----------|-----------|-------------|-
A ||--------------|-5-5-5--555-|------------|------------|-7-7-7--777-|-5-5-5--00-|------------|------------|7-7-7--777-|-5-5-5--00-|-------------|-
E ||--7-7-7--777--|------------|-3-3-3--333-|-5-5-5--555-|------------|-----------|-7-7-7--777-|-7-7-7--777-|-----------|-----------|-7-7-7--7-(7)|-


    With Drums
G ||---------------
D ||---------------
A ||---0-0--2------
E ||---------------


G ||------------------|--17--16--14------------------------|-
D ||------------------|-------------17--16--14-------------|-
A ||---12/14---12/14--|------------------------17--15--14--|-
E ||------------------|------------------------------------|-


G ||----------------------------------||-
D ||----------------------------------||-
A ||---2-222-2--5-5----2-222-2--0-0---||-
E ||----------------------------------||-
		     Play till the end

G ||-------||
D ||-------||
A ||---2---||
E ||-------||


I like this very cut very much, I enjoy playing it to the maximum and I hope 
you'll do too.





Comments


Popular Satriani Joe tabs & chords
Psycho Monkey Bass Tabs
Baroque 1 Tabs
Lights Of Heaven 2 Tabs
Oriental Melody Tabs
Speed Of Light Tabs
Tears In The Rain 1 Tabs
The Extremist Tabs
The Forgottenpart Tabs
Top Gun (Solo) Tabs
Top Gun Anthem Tabs


Song lyrics



↑ Back to top | Tablatures and chords are parodies/interpretations of the original songs. You may use it for private study, scholarship, research or language learning purposes only
© 2014 AZChords.com Contact us | Privacy policy | DMCA | Add/correct tabs | Request tabs | Top 50 tabs