» » »

Satriani Joe, A Piece Of Liquid Bass tabs (ver.1)

Artists:  A B C D E F G H I J K L M N O P Q R S T U V W X Y Z # 

A Piece Of Liquid Bass tabs (ver.1)

Satriani Joe Tabs
 Rating:
4/5 (4 votes)
A Piece Of Liquid lessons Tabs too difficult? Try these video lessons and learn fast
                           timing isn't very right(especially at the bass solo).

--------------------------------------------------

/     = Slide up
\     = Slide down
5h7   = Hammer on from fret 5 to fret 7
19p17 = Pull off from fret 19 to fret 17
x     = Mute string
^     = Bend
~12   = Vibrato on fret 12
S     = Slap note
P     = Pop note

--------------------------------------------------

Bass enters at 0:05

Main Part
G||-----------|-----------|-----------|-----------|
D||*----------|-----------|-----------|----------*| x4
A||*----------|-----------|-----------|----------*|
E||-0----0--0-|-0----0--0-|-0----0--0-|-0----0--0-|

G||-----------|-----------|-----------|-----------|
D||*----------|-----------|-----------|----------*|
A||*----------|-----------|-----------|-7----7--7*|
E||-0----0--0-|-0----0--0-|-0----0-/7-|-----------|

G||-----------|-----------|-----------|-----------|
D||-----------|-----------|-----------|-----------|
A||-4----4--4-|-4----4--4-|-0----0--0-|-0----0--0-|
E||-----------|-----------|-----------|-----------|

G||-----------|-----------|-----------|-----------|
D||-----------|-----------|-----------|-----------|
A||-----------|-----------|-----------|---------0-|
E||-0----0--0-|-0----0--0-|-0----0--0-|-0----4----|

G||-----------|-----------|-----------|-----------|
D||-----------|-----------|-----------|-----------|
A||-2----2--2-|-2----2--2-|-2----2--2-|-2----2--2-|
E||-----------|-----------|-----------|-----------|

G||-----------|-----------|
D||-----------|-----------|
A||-----------|-----------|
E||-0----0--0-|-0----0--0-|

Fill 1
G||-----------|-----------|
D||-----------|-----------|
A||-----------|-----------|
E||-0----0--0-|-0----0--0-|

Guitar Solo
G||-----------|-----------|-----------|-----------|
D||*----------|-----------|-0----0--0-|-0----0--0*| x4
A||*0----0--0-|-0----0--3-|-----------|----------*|
E||-----------|-----------|-----------|-----------|

G||-----------|-----------|-----------|-----------|
D||-----------|-----------|-----------|-2-----2-2-|
A||-2----2--2-|-2----2--2-|-2----2--2-|---2-2-----|
E||-----------|-----------|-----------|-----------|

G||-----------|-----------|-----------|-----------|
D||-1----1--1-|-1----1--1-|-1----1--1-|-1-------1-|
A||-----------|-----------|-----------|------2----|
E||-----------|-----------|-----------|-----------|

G||-----------|-----------|-----------|-----------|
D||-2----2--2-|-2----2--2-|-2----2--2-|-2-----2-2-|
A||-----------|-----------|-----------|---2-2-----|
E||-----------|-----------|-----------|-----------|

G||-----------|-----------|-----------|-----------|
D||-1----1--1-|-1----1--1-|-1----1--1-|-/9--------|
A||-----------|-----------|-----------|-----------|
E||-----------|-----------|-----------|-----------|

Repeat the Main Part

Fill 2
G||-----------|-----------|
D||-----------|-----------|
A||-0----0--0-|-0----0--0-|
E||-----------|-----------|

Bass Solo
G||---------------7-9--9--11-13------13h14p13-------------|
D||---7-9-10--10------------------------------14----------|
A||-7--------------------------------------------14h15p14-|
E||-------------------------------------------------------|

G||-------------------------------------------------------|
D||-------------------------------------------------------|
A||-14\12--------(0)-------------5--7--7/9--(7)-----------|
E||-------15--12-----------5-7-8----------------------(0)-|

Ending
G||-----------|-----------|-----------|-----------|
D||-----------|-----------|-----------|-----------|
A||-----------|-----------|-----------|-----------|
E||-0----0--0-|-0----0--0-|-(0)-------|-----------|
            
Submit corrections

comments powered by Disqus
↑ Back to top | Satriani Joe Bass for A Piece Of Liquid. Lyrics for acoustic guitar and electric guitar. Tablatures and chords are parodies/interpretations of the original songs. You may use it for private study, scholarship, research or language learning purposes only