>
 >
True Blackness

True Blackness Guitar Tabs

Satanic Warmaster - True Blackness chords, tabs, tablatures, lyrics

Guitar lessons | Add/correct | Request | Top 50 tabs Artists:  A B C D E F G H I J K L M N O P Q R S T U V W X Y Z 0-9

True Blackness Guitar Tabs – Satanic Warmaster

CD, Sheet music, Poster

Do you like True Blackness? Share with your friends now
Tabs
Satanic Warmaster - True Blackness


This is my first tab. Please rate and comment.

Tuning: Standard


E|------------------------------------------------|
B|------------------------------------------------|
G|------------------------------------------------|
D|------------------------------------------------|
A|-2--2--3--2--5--8--7----2--2--3--2--8--7--3-----|Riff 1
E|-0--0--1--0--3--6--5----0--0--1--0--6--5--1-----|Intro 6x


E|-----|
B|-----|
G|-----|
D|-----|
A|--2--|
E|--0--|


Tremolo pick the notes with a * after.
E|-----------------------------------------|
B|-----------------------------------------|
G|-----------------------------------------|
D|-----------------------------------------|
A|--7---8---7---8---7---8---10----6--6--6--|Riff 2
E|--5*--6*--5*--6*--5*--6*--8*----4--4--4--|Verse 4x


This time tremolo pick a litte bit slower.
E|--------------------|
B|--------------------|
G|--------------------|
D|---------12-----9---|
A|--7------8*-----8*--|Riff 3
E|--5*----------------|Chorus 4x


E|-----------------------------------------|
B|-----------------------------------------|
G|-----------------------------------------|
D|-----------------------------------------|
A|--7---8---7---8---7---8---10----6--6--6--|Riff 2
E|--5*--6*--5*--6*--5*--6*--8*----4--4--4--|Verse 4x


E|--------------------|
B|--------------------|
G|--------------------|
D|---------12-----9---|
A|--7------8*-----8*--|Riff 3
E|--5*----------------|Chorus 4x

E|-----------------------------------------------------------|
B|-----------------------------------------------------------|
G|-----------------------------------------------------------|
D|-----------------------------------------------------------|
A|--7--7-7--8-7-8-7----7--7-7--10-7-10-7----7--7-7--8-7-8-7--|Riff 4
E|--5--5-5--6-5-6-5----5--5-5--8--5-8--5----5--5-5--6-5-6-5--|6x


Always end riff 4 with this riff.
E|------------------|
B|------------------|
G|------------------|
D|------------------|
A|--5-5-5-5-6-6-6-6-|
E|--3-3-3-3-4-4-4-4-|Riff 5


Repeat Intro 6x

Verse 4x

Chorus 4x

End the song with this.
E|---------|
B|---------|
G|---------|
D|---------|
A|--8--7---|
E|--6--5---|





Comments


Popular Satanic Warmaster tabs & chords
Black Metal Kommando Tabs
Blood Of Our Fathers Tabs
Eaten By Rats Tabs
Rain Falls Tabs
The Burning Eyes Of The Werewolf Tabs


Song lyrics



↑ Back to top | Tablatures and chords are parodies/interpretations of the original songs. You may use it for private study, scholarship, research or language learning purposes only
© 2014 AZChords.com Contact us | Privacy policy | DMCA | Add/correct tabs | Request tabs | Top 50 tabs