» » »

Satanic Warmaster, Rain Falls Tabs (ver.1)

Artists:  A B C D E F G H I J K L M N O P Q R S T U V W X Y Z # 

Rain Falls Tabs (ver.1)

Satanic Warmaster Tabs
 Rating:
4/5 (7 votes)
Rain Falls lessons Tabs too difficult? Try these video lessons and learn fast
                -----------------------------------------------------------------------------
-----------------------------------------------------------------------------

Tuning: EADGBe


  Riff 1
e|-------------------------------------------------------|
B|-------------------------------------------------------|
G|-------------------------------------------------------|
D|--------------8--9------------------8--9---------------|
A|--6--8--9--6---------------6--8--9---------------------|
E|--------------------7---------------------7-----7---9--|
                      *                     *


  Riff 2
e|----------------------------|
B|----------------------------|
G|----------------------------|
D|----------------------------|
A|--6-------------6-----------|
E|---------9-------------7----|
    *      *      *      *


  Riff 3
e|-----------------------------------------------------------------|
B|-----------------------------------------------------------------|
G|-----------------------------------------------------------------|
D|-----------------------------------------------9--8--6--4--6--8--|
A|--6--8--9--6--8--9-----6--8-----6--8--6--8--9--------------------|
E|--------------------9--------9-----------------------------------|


Order:

Riff 1 x4
Riff 2 x4
Riff 1 x4
Riff 2 x4
Riff 3 x4


| /  slide up
| \  slide down
| h  hammer-on
| p  pull-off
| ~  vibrato
| +  harmonic
| x  Mute note
| *  Sustained/Held Note
=============================================================================
            
Submit corrections

comments powered by Disqus
↑ Back to top | Satanic Warmaster Tabs for Rain Falls. Lyrics for acoustic guitar and electric guitar. Tablatures and chords are parodies/interpretations of the original songs. You may use it for private study, scholarship, research or language learning purposes only