» » »

Satanic Surfers, Wishing You Were Here Tabs (ver.1)

Artists:  A B C D E F G H I J K L M N O P Q R S T U V W X Y Z # 

Wishing You Were Here Tabs (ver.1)

Satanic Surfers Tabs
Rating:
5/5 (1 vote)
Wishing You Were Here lessons Tabs too difficult? Try these video lessons and learn fast
                # intro #A&B X4 m=palm-muted    # verse #A&B X4 #=play 3-4X *=play 5-7X    
E---mm------mm------|           E-----------------------------------|
B-------------------|           B-------#-------#----*------*-------|
G-------------------|           G----#-9----#--5----7------5--------|
D---000-0-0-222-2-2-|           D---2--9---7---5----7------5--------|
A---222-2-2-333-3-3-|           A---2--7---7---3----5------3--------|
E-------------------|           E---0------5------------------------|
:
# verse-part2 #A X2                                                
E-------------------------------------------------------------------|
B-------------------------------------------------------------------|
G-----------5---------------5---------------5-----7---------5-------|
D---5-------5-------5-------5-------5-------5---2-755---2---5-------|
A---2-------3-------2-------3-------2-------3---2-522---2---3-------|
E-----------------------------------------------0-------0-----------|
# verse-part2 #B                                                    >
E------------------------------------------------------------------->
B------------------------------------------------------------------->
G-----------5---------------5---------------5-----7----------------->
D---5-------5-------5-------5-------5-------5---2-755---2---2-02---->
A---2-------3-------2-------3-------2-------3---2-522---2---3------->
E-----------------------------------------------0-------0----------->
>verse-part2B
>-------------------------------------------------------------------|
>--------------------------------------------------------------3----|
>-----------5---------------5---------------5-----7---------5--5----|
>---5-------5-------5-------5-------5-------5---2-755---2---5-------|
>---2-------3-------2-------3-------2-------3---2-522---2---3-------|
>-----------------------------------------------0-------0-----------|
:
# chorus #A !õ=10! *=play 6X
E------------------------------------*---*---*---*---*---*----------|
B------------*---*-----------*---*--8---8---õ---õ---8---8--/õ-------|
G----*---*--7---7----*---*--5---5---7---7---7---7---7---7-------9---|
D---5---5---7---7---5---5---5---5-----------------------------------|
A---7---7---5---5---5---2---3---3-----------------------------------|
E-------------------3-----------------------------------------------|
# chorus #B !õ=10! *=play 6X
E---3*--3*---*---*--3*--3*----------3*--3*---*---*--3*--3*----------|
B---3---3---3---3---3---3----*---*--3---3---3---3---3---3----*---*--|
G---0---0---2---2---0---0---5---5---0---0---2---2---0---0---5---5---|
D---2---2---0---0---0---0---5---5---2---2---0---0---0---0---5---5---|
A-----------------------2---3---3-----------------------2---3---3---|
E-------------------------------------------------------------------|
Then play A&BverseA&BX2.
:
# verse2 #A !B plays verseA&BX2! h=hammer-on p=pull-off
E--------------------------->--hp------hp------hp---/-----|
B-------3-----5/7-5-3------->-787-----787-----787---8-7---|
G---4-----------------2----->----9-79----9-79----9-7------|
D--------------------------->-----------------------------|
A--------------------------->-----------------------------|
E--------------------------->-----------------------------|
Then play AchorusA or BchorusB (!pause in the end!)
:
# outro #A&B X2 !end with first note! *=play 5-7X #=play 3-4X
E-------------------------------------------------------------------|
B----*------#---#----*------#---#----*------*--------*------#---#---|
G---9------7--12----9------7--12---11-----11--------7------9--11----|
D-------------------------------------------------------------------|
A---7------5--10----7------5--10----9------9--------5------7---9----|
E-------------------------------------------------------------------|
            
Submit corrections

comments powered by Disqus
↑ Back to top | Satanic Surfers Tabs for Wishing You Were Here. Lyrics for acoustic guitar and electric guitar. Tablatures and chords are parodies/interpretations of the original songs. You may use it for private study, scholarship, research or language learning purposes only