» » »

Satanic Surfers, Why? Bass tabs (ver.1)

Artists:  A B C D E F G H I J K L M N O P Q R S T U V W X Y Z # 

Why? Bass tabs (ver.1)

Satanic Surfers Tabs
 Rating:
4/5 (4 votes)
Why? lessons Tabs too difficult? Try these video lessons and learn fast
                ---------------------------------
  STANIC SURFERS- WHY
---------------------------------


G|-------------------------------------|
D|-2-5>-4>-----------------------------|4x -intro
A|----------5>-3>-2>-------------------|
E|-------------------------------------|

  
G|--------------------------------------------------------|
D|-2-5-4-----------14-12-9-14-12--5-4--12-9-7-5-2---------|faster -intro
A|----------2-3-5---------------------------------5--3-5--|
E|--------------------------------------------------------|

G|----------------------------------------|
D|-14-12-9-14-12--5-4---12-9-7-5-2--------|2x - pre verse
A|---------------------------------5--3-5-|
E|----------------------------------------|



G|-------------------------------------|
D|-2>----4>-----5>---------------------|2x -Verse
A|----3>-----5>----2>------------------|
E|-------------------------------------|


G|-------------------------------------|
D|-2>-------5>-------------------------|2x -Chorus
A|----2>-5>----------------------------|
E|-------------------------------------|


G|-------------------------------------|
D|-2>-5>-----------4>------------------|2x Bridge
A|-------5>--2>-3>---------------------|
E|-------------------------------------|

G|----------------------------------------|
D|-14-12-9-14-12--5-4---12-9-7-5-2--------|2x - pre verse
A|---------------------------------5--3-5-|
E|----------------------------------------|

G|-------------------------------------|
D|-2--------2--------------------------|6x-Bridge2 
A|---2>-5-----5>-2---------------------|
E|-------------------------------------|


G|-------------------------------------------------|
D|-14-12-9-14-12--5-4---12-9-7-5-2-----------------|outro
A|---------------------------------5--3-5--2>-3>-5>|
E|-------------------------------------------------|
            
Submit corrections

comments powered by Disqus
↑ Back to top | Satanic Surfers Bass for Why?. Lyrics for acoustic guitar and electric guitar. Tablatures and chords are parodies/interpretations of the original songs. You may use it for private study, scholarship, research or language learning purposes only