» » »

Satanic Surfers, When Was The Last Time.. Tabs (ver.1)

Artists:  A B C D E F G H I J K L M N O P Q R S T U V W X Y Z # 

When Was The Last Time.. Tabs (ver.1)

Satanic Surfers Tabs
Rating:
0/5 (0 votes)
When Was The Last Time.. lessons Tabs too difficult? Try these video lessons and learn fast
                # intro #A X2   m=palm-mute                         >
E--------------------------------------------------->
B---8---8-----8---8---8---8-8---8-----8---8---8---8->
G---7---7---7-7-7-7-7-7-7-7-7---7---7-7-7-7-7-7-7-7->
D---5---5---5-5-5-5-5-5-5-5-7---7---7-7-7-7-7-7-7-7->
A--------------------------------------------------->
E-----------m---m---m---m-----------m---m---m---m--->
>introA     
>-----------------------------------------------------|
>---8---8-----8---8---8---8-8---8-----8---8---8---8---|
>---7---7---7-7-7-7-7-7-7-7-7---7---7-7-7-7-7-7-7-7---|
>---9---9---9-9-9-9-9-9-9-910--10--1010101010101010---|
>-----------------------------------------------------|
>-----------m---m---m---m-----------m---m---m---m-----|
# intro #B X8   m=palm-mute
E-----------------------------|
B-----------------------------|
G--12--12----------------12---|
D--12--12--1212121212121212---|
A--10--10--1010101010101010---|
E-----------m---m---m---m-----|
:
# verse #A X2
E------10--------------10----87--------10-----------87-----87-------|
B----8---------------8-------8--7-8--8--------------8--7-8-8--7-8---|
G---7---------------7-----------7---7------------------7------7-----|
D-------------------------------------------------------------------|
A-------------------------------------------------------------------|
E-------------------------------------------------------------------|
# verse #B X2   *=play 2nd time 4X
E-------------------------------------------------------------------|
B----------------------------------------------------*---*----------|
G-------------------7---7---------------------------5---5-----------|
D---5---5-----------7---7-----------2---2-----------5---5-----------|
A---5---5-----------5---5-----------2---2-----------3---3-----------|
E---3---3---------------------------0---0---------------------------|
:
# pre-chorus #A   *=play 5-7X   %=pause   m=palm-mute           >
E--------------------------------------------------------%------>
B--------------------*-------*---------------------------%------>
G----*-------*------5-------7--------*-------*------5555-%------>
D---2-------5-------5-------7-------2-------5-------5555-%5-4--->
A---2-------5-------3-------5-------2-------5-------3333-%------>
E---0-------3-----------------------0-------3------------%------>
# pre-chorus #B   *=play 5-7X   %=pause   m=palm-mute           >
E--------------------------------------------------------%------>
B--------------------*-------*---------------------------%------>
G----*-------*------5-------7--------*-------*------5555-%5-7--->
D---2-------5-------5-------7-------2-------5-------5555-%5-7--->
A---2-------5-------3-------5-------2-------5-------3333-%3-5--->
E---0-------3-----------------------0-------3------------%------>
>>>>>>>>>>>to next page...
:
:
:
:
:
:
:
:
WHEN WAS THE LAST TIME...
:
>pre-chorusA
>---3-------3------------------|
>---3-------3------------------|
>---5-------4-------2----------|
>-------------------2-222222---|
>-------------------0-000000---|
>---------------------mmmmmm---|
>pre-chorusB
>------------------------------|
>------------------------------|
>---5---------------2----------|
>---5-------5-------2-222222---|
>---3-------2-------0-000000---|
>---------------------mmmmmm---|
:
# chorus #A   m=palm-mute
E--|-----------(2X)----3-3---------|2--3--5--3--2---8-78-78---|
B--|-------------------3-30---1-1-1|3--3--3--3--3---8-88-88---|
G--|---7-7----2-----0-0---0---0-0-0|--------------------------|
D--|5-57-72----42-4-0-0------------|--------------------------|
A--|5-55-52------------------------|--------------------------|
E--|3-3---0---mm-------------------|--------------------------|
# chorus #B   m=palm-mute
E--|-----------(2X)----------------|----------------3-33-33---|
B--|-------------------------------|----------------3-33-33---|
G--|---7-7----2--------7--4---5-5-5|7--7--7--7--7---5-55-55---|
D--|5-57-72----42-4-5--5--5---5-5-5|7--7--7--7--7---5-55-55---|
A--|5-55-52------------------------|5--5--5--5--5---3-33-33---|
E--|3-3---0---mm-------------------|--------------------------|
:
# bridge #A
E--------------------------------------------------------------|
B---8------7--------8------7--------8------7--------8----------|
G---7------7--------7------7--------7------7--------7------7---|
D---5------7--------9------7--------5------7--------9------7---|
A--------------------------------------------------------------|
E--------------------------------------------------------------|
# bridge #B
E--------------------------------------------------------------|
B--------------------------------------------------------------|
G--12------7--------7------7-------12------7--------7------7---|
D--12------7--------9------7-------12------7--------9------7---|
A--10------5--------7------5-------10------5--------7------5---|
E--------------------------------------------------------------|
:
Then play AverseAX2 or BverseBX2, Apre-chorusA or Bpre-chorusB and AchorusA
or BchorusB.
:
# outro #A&B? X4
E---------------------------------------------------------------------|
B---7---------------7---------------5--7--8----7----5557--8-----------|
G---7---------------9---------------7--7--7----7----7777--7----7------|
D---9---------------0---------------7--7--7----7----7777--7----7------|
A---7---------------0-------------------------------------------------|
E---0-----------------------------------------------------------------|
:
:
:
:
:
:
:
:
:
:
>>>>>>>>>>>>to next page...
WHEN WAS THE LAST TIME...
:
# outro2 #A?
E--10-----------------------------------------------5---|
B---7---------------7---------------------------5-------|
G---7---------------9-----------------------7-----------|
D---9---------------0-----------------------7-----------|
A---7---------------0---------------d-------------------|
E---0---------------------------------------------------|
# outro2 #B?        d=D played with bass (helps rhythm)
E-------------------------------------------------------|
B---7---------------7-----------------------------------|
G---7---------------9-----------------------------------|
D---9---------------0-----------------------0-----------|
A---7---------------0---------------d---0---------------|
E---0---------------------------------------------------|
            
Submit corrections

comments powered by Disqus
↑ Back to top | Satanic Surfers Tabs for When Was The Last Time... Lyrics for acoustic guitar and electric guitar. Tablatures and chords are parodies/interpretations of the original songs. You may use it for private study, scholarship, research or language learning purposes only