>
 >
Whatever

Whatever Guitar Tabs

Satanic Surfers - Whatever chords, tabs, tablatures, lyrics

Guitar lessons | Add/correct | Request | Top 50 tabs Artists:  A B C D E F G H I J K L M N O P Q R S T U V W X Y Z 0-9

Whatever Guitar Tabs – Satanic Surfers

CD, Sheet music, Poster

Do you like Whatever? Share with your friends now
Tabs
------------------------------------------------------------------------------- 
------------------------------------------------------------------------------- 


Intro (x3) 
e|---------------------------------------------------------------------------| 
B|---------------------------------------------------------------------------| 
G|------------4-----------------7--7--7-------4h5p4--------------------------| 
D|---5--5--5--4----4h5p4--------7--7--7--7----------5------------------------| 
A|---5--5--5--2----------5------5--5--5--7-----------------------------------| 
E|---3--3--3-----------------------------5-----------------------------------| 

e|---------------------------------------------------------------------------| 
B|---------------------------------------------------------------------------| 
G|------------4-----------------7----4h5p4-----------------------------------| 
D|---5--5--5--4----4h5p4--------7-----------7p5p4----------------------------| 
A|---5--5--5--2----------5------5------------------7p5p3---------------------| 
E|---3--3--3----------------------------------------------7p5p3--------------| 

Verse (I Have My Opinions) (x4) 
e|---------------------------------------------------------------------------| 
B|---------------------------------------------------------------------------| 
G|----------------------5--5--5---7---4--------------------------------------| 
D|---2--2--2---5--5--5--5--5--5---7---4--------------------------------------| 
A|---2--2--2---5--5--5--3--3--3---5---2--------------------------------------| 
E|---0--0--0---3--3--3-------------------------------------------------------| 

Chorus (x2) 
e|---------------------------------------------------------------------------| 
B|---------------------------------------------------------------------------| 
G|---5--5--5--5--4--4--4--4--2--2--2--2--------------------------------------| 
D|---5--5--5--5--4--4--4--4--2--2--2--2--2--2--2—-2--------------------------| 
A|---3--3--3--3--2--2--2--2--0--0--0--0--2--2--2--2--------------------------| 
E|---------------------------------------0--0--0--0--------------------------| 

e|---------------------------------------------------------------------------| 
B|---------------------------------------------------------------------------| 
G|----5--5--5--5--5--5--5--5-------------------------------------------------| 
D|----5--5--5--5--5--5--5--5--5--5--5--5--5--5--5--5-------------------------| 
A|----3--3--3--3--3--3--3--3--5--5--5--5--5--5--5--5-------------------------| 
E|----------------------------3--3--5--3--3--3--3--3-------------------------| 

Solo (x2) 
e|--------------------------2h3p2--------3--2--------------------------------| 
B|--3h5p3--------------------------5--3--------------------------------------| 
G|---------5--4--2-----------------------------------------------------------| 
D|---------------------------------------------------------------------------| 
A|---------------------------------------------------------------------------| 
E|---------------------------------------------------------------------------| 

===============================================================================





Comments


Popular Satanic Surfers tabs & chords
Count Me Out Bass Tabs
End Of The World Chords
Evil Tabs
Ketty Tabs
Nun Tabs
Puppet Tabs
Use A Bee Tabs
When Was The Last Time.. Tabs
Dont Fade Away Ukulele
Got To Throw Up Ukulele


Song lyrics



↑ Back to top | Tablatures and chords are parodies/interpretations of the original songs. You may use it for private study, scholarship, research or language learning purposes only
© 2014 AZChords.com Contact us | Privacy policy | DMCA | Add/correct tabs | Request tabs | Top 50 tabs