» » »

Satanic Surfers, Use A Bee Tabs (ver.1)

Artists:  A B C D E F G H I J K L M N O P Q R S T U V W X Y Z # 

Use A Bee Tabs (ver.1)

Satanic Surfers Tabs
 Rating:
4/5 (4 votes)
Use A Bee lessons Tabs too difficult? Try these video lessons and learn fast
1
                ------------------------------------------------------------------------------- 
------------------------------------------------------------------------------- 

Intro solo: 
e-|-----------------------------------------------------------------| 
B-|-----------------------------------------------------------8-10--| 
G-|-5-7-5-5-7-9-9-7-5-------5-6-7-5-----5-7-5-5-7-9-9-7-5-----------| 
D-|-------------------7-5-7---------7-5-------------------7-5-------| 
A-|-----------------------------------------------------------------| 
E-|-----------------------------------------------------------------| 

Verse: 
e-|------------------------------------------------------------------------- 
B-|------------------------------------------------------------------------- 
G-|------------------------------------------------------------------------- 
D-|---------------------7-7-7-7-9-9-9-9---------------------7-7-7-7-9-9-9-9- 
A-|-7-7-7-----5-5-5-5-5-5-5-5-5-7-7-7-7-7-7-7-7-7-5-5-5-5-5-5-5-5-5-7-7-7-7- 
E-|-5-5-5-8-7-3-3-3-3-3-----------------5-5-5-5-5-3-3-3-3-3----------------- 

Chorus: 
e-|------------------------------------------------------------------------- 
B-|------------------------------------------------------------------------- 
G-|------------------------------------------------------------------------- 
D-|-10-10-10-10-10-10-10-10-9-9-9-9-9-9-9-9-----------------5-5-5-5--------- 
A-|--8--8--8--8--8--8--8--8-7-7-7-7-7-7-7-7-5-5-5-5-5-5-5-5-3-3-3-3-7-7-7-7- 
E-|-----------------------------------------3-3-3-3-3-3-3-3---------5-5-5-5- 

e-|-----------------| 
B-|-----------------| 
G-|-----------------| 
D-|-9-9-9-9-9-9-9-9-| 
A-|-7-7-7-7-7-7-7-7-| 
E-|-----------------| 

Bridge: now you've become... 
e-|-------------------------|-------------------------------------------------- 
B-|-------------------------|-------------------------------------------------- 
G-|-5-7-8-7-5-4-------------|-------------------------------------------------- 
D-|-------------------------|------------------5-5-5-5------------------------- 
A-|-------------7--5--3--2--|-3-3-3-3-5-5-5-5--3-3-3-3-7-7-7-7-5-5-5-5-3-3-3-3- 
E-|-------------5--3--1--0--|-1-1-1-1-3-3-3-3----------5-5-5-5-3-3-3-3-1-1-1-1- 

e-|-----------------------------------------------------------------| 
B-|-----------------------------------------------------------------| 
G-|-----------------------------------------------------------------| 
D-|-----------------5-5-5-5-----------------5-5-5-5-----------------| 
A-|-7-7-7-7-5-5-5-5-3-3-3-3-3-3-3-3-5-5-5-5-3-3-3-3-7-7-7-7-3---5---| 
E-|-5-5-5-5-3-3-3-3---------1-1-1-1-3-3-3-3---------5-5-5-5-1---3---| 

Ending bit: 
e-|------------------------------------------------------------------------- 
B-|------------------------------------------------------------------------- 
G-|-----------------5-5-5-5-7-7-7-5-----------------5-5-5-5-7-7-7-5--------- 
D-|-7-7-7-7-9-9-9-9-----------------7-7-7-7-9-9-9-9-----------------7-7-7-7- 
A-|------------------------------------------------------------------------- 
E-|------------------------------------------------------------------------- 

e-|------------------------------------------------------------------| 
B-|----------------------------------------------------------------5-| 
G-|---------5-5-5-5-7-7-7-5-----------------5-5-5-5----------------6-| 
D-|-9-9-9-9-----------------7-7-7-7-9-9-9-9-----------------6-9----7-| 
A-|-------------------------------------------------7-5-3-2-----7--7-| 
E-|-------------------------------------------------5-3-1-0-----5----| 

-------------------------------------------------------------------------------
            
Submit corrections

comments powered by Disqus
↑ Back to top | Satanic Surfers Tabs for Use A Bee. Lyrics for acoustic guitar and electric guitar. 1 Tablatures and chords are parodies/interpretations of the original songs. You may use it for private study, scholarship, research or language learning purposes only