» » »

Satanic Surfers, U Plus Ir1 Tabs (ver.1)

Artists:  A B C D E F G H I J K L M N O P Q R S T U V W X Y Z # 

U Plus Ir1 Tabs (ver.1)

Satanic Surfers Tabs
Rating:
4/5 (1 vote)
U Plus Ir1 lessons Tabs too difficult? Try these video lessons and learn fast
                Satanic Surfers - U+IR1
this is my favorite song of satanic surfers, and i think this tab sounds correct, but if 
any mistakes, plz comment!

intro
e|-------------------------------------------------------------|
b|-------------------------------------------------------------|
g|--5555555--33333--888888-------------------------------------|
d|--5555555--33333--888888-------------------------------------|
a|--3333333--11111--666666-------------------------------------|
e|-------------------------------------------------------------|

riff
e|-2-----------------------------------------------------------|
b|--333322233-7710105577-33332233---13b13b-11b--5b~------------|
g|-------------------------------------------------------------|
d|-------------------------------------------------------------|
a|-------------------------------------------------------------|
e|-------------------------------------------------------------|

2nd guitar during the riff
e|------------------------    ---------------------------------|
b|------------------------    ---------------------------------|
g|--555555--33333--888888- x3 -------------33333333------------|
d|--555555--33333--888888-    ---55555555--33333333------------|
a|--333333--11111--666666-    ---55555555--11111111------------|
e|------------------------    ---33333333----------------------|

verse
e|---------------------------------------------------------------------------|
b|---------------------------------------------------------------------------|
g|-5~~~--------3~-55555-3333-8888--55555-3333----3---------------------------|
d|-5~~~-----5~-3~-55555-3333-8888--55555-3333--5-3-3~--5-6~--8-10~-6-8888888-|
a|-3~~~-----5~-1~-33333-1111-6666--33333-1111--5-1-3~--5-6~--8-10~-6-8888888-|
e|----------3~---------------------------------3---1~--3-4~--6-8~--4-6666666-|
                                                                      ......
pré-chorus
e|-------------------------------------------------------|
b|-------------------------------------------------------|
g|-888-----555-3-5-7-888-101010-5555-3-5-7-888-----555---|
d|-888-555-555-3-5-7-888-101010-5555-3-5-7-888-555-555---|
a|-666-555-333-1-3-5-666--8-8-8-3333-1-3-5-666-555-333---|
e|-----333-------------------------------------333-------|

coninued
e|-------------------------|
b|-------------------------|
g|-3-5-7-888-101010-55555--|
d|-3-5-7-888-101010-55555--|
a|-1-3-5-666--8-8-8-33333--|
e|-------------------------|
                    .....
prechorus 2
e|-------------------------------------------------------------|
b|-------------------------------------------------------------|
g|-333333------------------------------------------------------|
d|-333333-333333-xxxxx-----------------------------------------|
a|-111111-333333-xxxxx-----------------------------------------|
e|--------111111-xxxxx-----------------------------------------|

chorus
e|-------------------------------------------------------------|
b|-------------------------------------------------------------|
g|-5555-3333----------5555-3333--------------------------------|
d|-5555-3333-33333333-5555-3333-3333333-5-6-----8-3------------|
a|-3333-1111-33333333-3333-1111-3333333-5-6-----8-3------------|
e|-----------11111111-----------1111111-3-4~----6-1~-----------|

riff
e|-------------------------------------------------------------|
b|-3333322233-7710105577-33332233---13b13b-11b--5b~------------|
g|-------------------------------------------------------------|
d|-------------------------------------------------------------|
a|-------------------------------------------------------------|
e|-------------------------------------------------------------|

2nd guitar during the riff
e|------------------------    -------------------------------------|
b|------------------------    -------------------------------------|
g|--555555--33333--888888- x3 -------------33333333----------------|
d|--555555--33333--888888-    ---55555555--33333333----------------|
a|--333333--11111--666666-    ---55555555--11111111----------------|
e|------------------------    ---33333333--------------------------|

2nd verse
e|-------------------------------------------------|
b|-------------------------------------------------|
g|-5%--3333-8888--55555-3333----3-55555-3333-8888--|
d|-5%--3333-8888--55555-3333--5-3-55555-3333-8888--|
a|-3%--1111-6666--33333-1111--5-1-33333-1111-6666--|
e|----------------------------3--------------------|

continued
------------------------------------------------|
------------------------------------------------|
-55555-3333------3------------------------------|
-55555-3333----5-3---3~--5-6~--8-10~-6-8888888--|
-33333-1111----5-1---3~--5-6~--8-10~-6-8888888--|
---------------3-----1~--3-4~--6-8~--4-6666666--|
                                       .......
prechorus
e|-------------------------------------------------------|
b|-------------------------------------------------------|
g|-888-----555-3-5-7-888-101010-5555-3-5-7-888-----555---|
d|-888-555-555-3-5-7-888-101010-5555-3-5-7-888-555-555---|
a|-666-555-333-1-3-5-666--8-8-8-3333-1-3-5-666-555-333---|
e|-----333-------------------------------------333-------|

coninued
e|-------------------------|
b|-------------------------|
g|-3-5-7-888-101010-55555--|
d|-3-5-7-888-101010-55555--|
a|-1-3-5-666--8-8-8-33333--|
e|-------------------------|
                    .....
prechorus 2
e|-------------------------------------------------------------|
b|-------------------------------------------------------------|
g|-333333------------------------------------------------------|
d|-333333-333333-xxxxx-----------------------------------------|
a|-111111-333333-xxxxx-----------------------------------------|
e|--------111111-xxxxx-----------------------------------------|

chorus
e|--------------------------------------     -------------------------|
b|--------------------------------------     -------------------------|
g|-5555-3333----------5555-3333--------- x2  -------------------------|
d|-5555-3333-33333333-5555-3333-3333333-     -5-6-----8-3-------------|
a|-3333-1111-33333333-3333-1111-3333333-     -5-6-----8-3-------------|
e|-----------11111111-----------1111111-     -3-4~----6-1~------------|

repeat many times as necessary during the interlude
e|-2222222222222222222222--------------------------------------|
b|-3333222333333332223333--------------------------------------|
g|-4444444444422222222222--------------------------------------|
d|-------------------------------------------------------------|
a|-------------------------------------------------------------|
e|-------------------------------------------------------------|

interlude(2nd guitar)
e|----------------------------------------------------------------------|
b|----------------------------------------------------------------------|
g|--55555555-333333333-555555555-33333333333----------------------------|
d|--55555555-333333333-555555555-33333333333-33333333-6666-88888--------|
a|--33333333-111111111-333333333-11111111111-33333333-6666-88888--------|
e|-------------------------------------------11111111-4444-66666--------|

e|----------------------------------------------------------------------|
b|----------------------------------------------------------------------|
g|--55555555-333333333-555555555-33333333333----------------------------|
d|--55555555-333333333-555555555-33333333333-33333333-6666-88888--------|
a|--33333333-111111111-333333333-11111111111-33333333-6666-88888--------|
e|-------------------------------------------11111111-4444-66666--------|
                                                           .....
prechorus
e|-------------------------------------------------------|
b|-------------------------------------------------------|
g|-888-----555-3-5-7-888-101010-5555-3-5-7-888-----555---|
d|-888-555-555-3-5-7-888-101010-5555-3-5-7-888-555-555---|
a|-666-555-333-1-3-5-666--8-8-8-3333-1-3-5-666-555-333---|
e|-----333-------------------------------------333-------|

coninued
e|-------------------------|
b|-------------------------|
g|-3-5-7-888-101010-55555--|
d|-3-5-7-888-101010-55555--|
a|-1-3-5-666--8-8-8-33333--|
e|-------------------------|
                    .....
ending
e|-------------------------------------------------------------|
b|-------------------------------------------------------------|
g|-333333------------------------------------------------------|
d|-333333-333333x----------------------------------------------|
a|-111111-333333x----------------------------------------------|
e|--------111111x----------------------------------------------|

that's all!
good luck!
            
Submit corrections

comments powered by Disqus
↑ Back to top | Satanic Surfers Tabs for U Plus Ir1. Lyrics for acoustic guitar and electric guitar. Tablatures and chords are parodies/interpretations of the original songs. You may use it for private study, scholarship, research or language learning purposes only