» » »

Satanic Surfers, Think Positive Tabs (ver.1)

Artists:  A B C D E F G H I J K L M N O P Q R S T U V W X Y Z # 

Think Positive Tabs (ver.1)

Satanic Surfers Tabs
 Rating:
4/5 (4 votes)
Think Positive lessons Tabs too difficult? Try these video lessons and learn fast
                ------------------------------------------------------------------------------- 
------------------------------------------------------------------------------- 

Rare song of Satanic surfers, harder than usually(a rkl cover). It's a great
song, and  not hard to play. Enjoy!


INTRO 
Guitar A 
e-|-------------------------------------------------------| 
B-|-------------------------------------------------------| 
G-|-----------77-----------77-----------77----------------| 
D-|-99-998755-77-99-998755-77-99-998755-77-99-998755------| 
A-|-99-998755-55-99-998755-55-99-998755-55-99-998755------| 
E-|-77-776533----77-776533----77-776533----77-776533------| 

Guitar B 
e-|-------------------------------------------------------| 
B-|-------------------------------------------------------| 
G-|-------------------------------------------------------| 
D-|-9------------9------------(9)----------99-998755------| 
A-|-9---pause----9--pause-----(9)----------99-998755------| 
E-|-7------------7------------(7)----------77-776533/15\3-| 

VERSE 
Guitars A&B 
e-|-------------------------------------------------------| 
B-|-------------------------------------------------------| 
G-|-----------77-----------77-----------77-----------77---| 
D-|-99-998755-77-99-998755-77-99-998755-77-99-998755-77---| 
A-|-99-998755-55-99-998755-55-99-998755-55-99-998755-55---| 
E-|-77-776533----77-776533----77-776533----77-776533------| 

CHORUS 
Guitars A&B 
*=play 8 times #=play 11 times 
e-|-------------------------------------------| 
B-|-------------------------------------------| 
G-|-*--------#---------------77---------------| 
D-|-2----5-7-9-----99-998755-77-99-998755-----| 
A-|-2----5-7-9-x2--99-998755-55-99-998755-----| 
E-|-0----3-5-7-----77-776533----77-776533/15\3| 

VERSE 2 
Guitars A&B 
e-|-------------------------------------------------------| 
B-|-------------------------------------------------------| 
G-|-----------77-----------77-----------77-----------77---| 
D-|-99-998755-77-99-998755-77-99-998755-77-99-998755-77---| 
A-|-99-998755-55-99-998755-55-99-998755-55-99-998755-55---| 
E-|-77-776533----77-776533----77-776533----77-776533------| 

CHORUS 2 
Guitars A&B 
*=play 8 times #=play 11 times %=pause 
e-|-------------------------------------------------| 
B-|-------------------------------------------------| 
G-|-*--------#------------------------*-------------| 
D-|-2----5-7-9-----9%-9875%-9%-987(5)-2-44%44%-(4)--| 
A-|-2----5-7-9-x2--9%-9875%-9%-987(5)-2-44%44%-(4)--| 
E-|-0----3-5-7-----7%-7653%-7%-765(3)-0-22%22%-(2)--| 

BRIDGE TO SOLO 
Guitars A&B 
e-|-----------------------------| 
B-|-----------------------------| 
G-|-----------77----------------| 
D-|-99-998755-77-99-998755------| 
A-|-99-998755-55-99-998755------| 
E-|-77-776533----77-776533/15\3-| 

SOLO 
Guitar A 
e-|------------------------------------------------> 
B-|------------------------------------------------> 
G-|------14----14------------------------14--------> 
D-|--/16----16----15b-14------12h15-16v-----12-----> 
A-|----------------------14v-------------------14v-> 
E-|------------------------------------------------> 

e-|------------------------13b-13b&r---------| 
B-|------------------15h16-----------15------| 
G-|-------------------------------------12v--| 
D-|----------7h9-9v--------------------------| 
A-|------7h9---------------------------------| 
E-|--7h9-------------------------------------| 

SOLO BACKGROUND(LIKE VERSE) 
Guitar B 
e-|-------------------------------------------------------| 
B-|-------------------------------------------------------| 
G-|-----------77-----------77-----------77-----------77---| 
D-|-99-998755-77-99-998755-77-99-998755-77-99-998755-77---| 
A-|-99-998755-55-99-998755-55-99-998755-55-99-998755-55---| 
E-|-77-776533----77-776533----77-776533----77-776533------| 

CHORUS 3 
Guitars A&B 
*=play 8 times #=play 11 times %=pause 
e-|-------------------------------------------------| 
B-|-------------------------------------------------| 
G-|-*--------#------------------------*-------------| 
D-|-2----5-7-9-----9%-9875%-9%-987(5)-2-44%44%-(4)--| 
A-|-2----5-7-9-x2--9%-9875%-9%-987(5)-2-44%44%-(4)--| 
E-|-0----3-5-7-----7%-7653%-7%-765(3)-0-22%22%-(2)--| 

BRIDGE 
Guitar A 
*=play 8 times #=play 11 times %=pause 
e-|-------------------------------------------------| 
B-|-------------------------------------------------| 
G-|----------------------------------7-----7--------| 
D-|-9-9999-9-9999-9-9999-9-9999-(7)--7-7-5-7-x6-9\--| 
A-|-9-9999-9-9999-9-9999-9-9999-(7)--5-7-5-5----9\--| 
E-|-7-7777-7-7777-7-7777-7-7777-(5)----5-3------7\--| 

SOLO 
Guitar A(starts after bridge is played 2 times) 
e-|------------------------------------------------------------> 
B-|------------------------------------------------------------> 
G-|--------------------------------------------------------14v-> 
D-|--15b-15b-15b-15b-12-----------------15b-15b-15b-15b-12-----> 
A-|---------------------12v------------------------------------> 
E-|------------------------------------------------------------> 

e-|------------------------------| 
B-|------------------------------| 
G-|------------------------------| 
D-|----12----12----12-15b-12-14v-| 
A-|-14----14----14---------------| 
E-|------------------------------| 

OUTRO 
Guitar A 
e-|-------------------------------------------------------| 
B-|-------------------------------------------------------| 
G-|-----------77-----------77-----------77-----------77---| 
D-|-99-998755-77-99-998755-77-99-998755-77-99-998755-77-9\| 
A-|-99-998755-55-99-998755-55-99-998755-55-99-998755-55-9\| 
E-|-77-776533----77-776533----77-776533----77-776533----7-| 
Guitar B 
e-|-------------------------------------------------------| 
B-|-------------------------------------------------------| 
G-|--------------------------------------------------77---| 
D-|-9------------9------------(9)----------99-998755-77-9\| 
A-|-9---pause----9--pause-----(9)----------99-998755-55-9\| 
E-|-7------------7------------(7)----------77-776533----7\| 

I keep laughing, and u? 
-------------------------------------------------------------------------------
            
Submit corrections

comments powered by Disqus
↑ Back to top | Satanic Surfers Tabs for Think Positive. Lyrics for acoustic guitar and electric guitar. Tablatures and chords are parodies/interpretations of the original songs. You may use it for private study, scholarship, research or language learning purposes only