» » »

The Bass Song Tabs (ver.1)

Artists:  A B C D E F G H I J K L M N O P Q R S T U V W X Y Z # 

The Bass Song Tabs (ver.1)

Satanic Surfers
Rating:
5/5 (1 vote)

Hard to play? Try these video lessons and learn fast.
                # song #B 0:24 X4 !not all the single notes played every time!
E---0--0----0--0----0--0----0--0-------2----0-----------------------|
B---0--2----3--2----0--2----3--2----3--3----0--3---10------10-------|
G---2--2----2--2----2--2----2--2----2-------1--2---11--7---11--7----|
D---2--2----2--2----2--2----2--2----0-------2--0---11--7---11--7----|
A---0--0----0--0----0--0----0--0----0-------2-------9--5----9--5----|
E-------------------------------------------------------------------|
:Aadd9 A Asus4 A Aadd9 A Asus4 A    D       E  D   F#m D   F#m D
# solo #A 0:39 !use vibrato!  |0:58                        >
E-----------------------------|--------------1210-910--9--->
B--10-9----------10-9---------|10-9---------------------12->
G------11-9--11------11-9--11-|----11-9--11---------------->
D-----------------------------|---------------------------->
A-----------------------------|---------------------------->
E-----------------------------|---------------------------->
>soloA h=hammer-on p=pull-off                              >
>-----------------------------------h-p10--9--1210-9---9--->
>-/1210-910--1210-910-9----------101210-------------10----->
>-----------------------911-------------------------------->
>---------------------------------------------------------->
>---------------------------------------------------------->
>---------------------------------------------------------->
>soloA             h                                   |1:37
>--12141214-\\10--910-9-9------------10----------------|1210-910--9---1210910|
>------------------------------10-9--------10-9--------|-----------12--------|
>----------------------------------11----------11-9----|---------------------|
>------------------------------------------------------|---------------------|
>------------------------------------------------------|---------------------|
>------------------------------------------------------|---------------------|
:
            
Hard to play? Try these video lessons and learn fast. | Correct




comments powered by Disqus
↑ Back to top | Tablatures and chords are parodies/interpretations of the original songs. You may use it for private study, scholarship, research or language learning purposes only