>
 >
That Song

That Song Guitar Tabs

Satanic Surfers - That Song chords, tabs, tablatures, lyrics

Guitar lessons | Add/correct | Request | Top 50 tabs Artists:  A B C D E F G H I J K L M N O P Q R S T U V W X Y Z 0-9

That Song Guitar Tabs – Satanic Surfers

CD, Sheet music, Poster

Do you like That Song? Share with your friends now
Tabs
# intro #A&B
E--|----|3X|-------|----------------|
B--|-------------30|-----------3----|
G--|---------------|-----------0----|
D--|-0----0---0----|-0----0---02----|
A--|--2--0-0-2-3---|--2--0-0-2-3----|
E--|3--2----0------|3--2----0-------|
:
# verse #A %=pause
E---%-------%-------%-------%-------%-------%-------%-------%---------------|
B---%-------%-------%-------%-------%-------%-------%-------%---------------|
G---%9-97-97%9-97-97%9-97-97%---7-75%9-97-97%9-97-97%9-97-97%---7-775-------|
D---%9-97-97%9-97-97%9-97-97%5-57-75%9-97-97%9-97-97%9-97-97%5-57-775-------|
A---%7-75-75%7-75-75%7-75-75%5-55-53%7-75-75%7-75-75%7-75-75%5-55-553-------|
E---%7-75-75%7-75-75%7-75-75%3-35-53%7-75-75%7-75-75%7-75-75%3-35-553-------|
# verse #B %=pause             
E---%-------%-------%-------%7-78887%-------%-------%-------%7-78-887-------|
B---%8-8-887%8-8-887%8-8-887%8-88888%8-8-887%8-8-887%8-8-887%8-88-888-------|
G---%9-97777%9-97777%9-97777%7-77777%9-97777%9-97777%9-97777%7-77-777-------|
D---%9-97---%9-97---%9-97---%-------%9-97---%9-97---%9-97---%---------------|
A---%7-7----%7-7----%7-7----%-------%7-7----%7-7----%7-7----%---------------|
E---%-------%-------%-------%-------%-------%-------%-------%---------------|
:
# verse2 #A&B *=play 9X #=play 4-5X
E--|----|3X|-------|---------------|--|2X|-|--------|
B--|-----*-------*-|-----*---------|-*--#--|-*------|
G--|-*--7----*--5--|-*--7----------|5---7-#|5---7---|
D--|5---7---7---5--|5---7---7------|5---7-7|5---7---|
A--|5---5---7---3--|5---5---7------|3---5-7|3---5---|
E--|3-------5------|3-------5------|------5|--------|
:
# end-verse2 #A b=bend-up one step h=hammer-on p=pull-off
E--------------------h-p-------h-p-15-14-12-------------------------|
B--15------15------12131215--121312---------------------------------|
G---b-------------------------------------------------------5---4---|
D-------------------------------------------------------2-5---------|
A---------------------------------------------------2h3-------------|
E-------------------------------------------------------------------|
# end-verse2 #B *=play 9X h=hammer-on
E-------------------------------------------------------------------|
B--------------------*----------------------------------------------|
G----*--------------7---------------------------------------5---4---|
D---5---------------7---------------7--7--7-------------2-5---------|
A---5---------------5---------------7--7--7---------2h3-------------|
E---3-------------------------------5--5--5-------------------------|
:
# outro #A %=pause *=play 6X "=play 2X                            >       
E-------%%%%%%%%|----%|4X|---|----%-------%----------------------->
B-------%%%%%%%%|----%-------|----%-------%-----------------*----->
G-------%%%%%%%%|----%-------|----%-------%-------7912111112------>
D---4555%%%%%%%%|4555%9997777|4555%9997777%55544447912111112------>
A---4555%%%%%%%%|4555%9997777|4555%9997777%55544445710-9-910------>
E---2333%%%%%%%%|2333%7775555|2333%7775555%33322225710-9-910------>
# outro #B %=pause                                                >       
E-------%-------|----%-------|----%-------%----------------------->
B-------%3322220|----%3322220|----%3322222%8877777---8-7-788-8-888>
G-------%2222220|----%2222220|----%2222222%777777779-7-7-777-7-777>
D---4555%-------|4555%-------|4555%-------%-------79-------------->
A---4555%-------|4555%-------|4555%-------%----------------------->
E---2333%-------|2333%|4X|---|2333%-------%----------------------->
>>>>>>>>>>to next page...
:
:
:
THAT SONG                                                                 2/2
:
>outroA
>-----------------------------------------------------------|
>------------"----------------*--------------"--------------|
>---7912111112------7912111112------7912111112--------------|
>---791211111210-9-97912111112------791211111210-9-----4555-|
>---5710-9-9101010105710-9-910------5710-9-9101010-----4555-|
>---5710-9-910-8-7-75710-9-910------5710-9-910-8-7-----2333-|
>outroB
>-----------------------------------------------------------|
>------8-7-788-8-8-8---8-7-788-8-888---8-7-788-8-8----------|
>---79-7-7-777-5-4-479-7-7-777-7-77779-7-7-777-5-4----------|
>---79--------------79--------------79-----------------4555-|
>------------------------------------------------------4555-|
>------------------------------------------------------2333-|





Comments


Popular Satanic Surfers tabs & chords
Dickweed 1 Bass Tabs
Equal Rights Bass Tabs
Lost Bass Tabs
Before It's Too Late Tabs
Good Morning 2 Tabs
Head Under Water Tabs
Seed Of Fear And Anger 1 Tabs
Soothing Tabs
Think Positive Tabs
You Can Count Your Money In Your Graves, You Filthy Bastards 1 Tabs


Song lyrics



↑ Back to top | Tablatures and chords are parodies/interpretations of the original songs. You may use it for private study, scholarship, research or language learning purposes only
© 2014 AZChords.com Contact us | Privacy policy | DMCA | Add/correct tabs | Request tabs | Top 50 tabs