» » »

Satanic Surfers, Start Over Tabs (ver.1)

Artists:  A B C D E F G H I J K L M N O P Q R S T U V W X Y Z # 

Start Over Tabs (ver.1)

Satanic Surfers Tabs
 Rating:
4.2/5 (5 votes)
Start Over lessons Tabs too difficult? Try these video lessons and learn fast
                :
# start #A # intro #A *=play 6-8X #=play 2-3X m=palm-muted %=pause
E---mmmmmmm|--%%--------------------------------------------|
B----------|#-%%#----*------#---#----*------#---#----*---*--|
G----*---*-|9-%%5-#-4----*--9-#-5-#-4----*--9-#-5-#-4---4---|
D---4---4--|9-%%5-5-4---5---9-2-5-5-4---5---9-2-5-5-4---4--2|
A---2---2--|7-%%3-5-2---5---7-2-3-5-2---5---7-2-3-5-2---2--0|
E----------|--%%--3-----3-----0---3-----3-----0---3---------|
# start #B # intro #B *=play 6-8X #=play 2-3X m=palm-muted
E---mmmmmmm|------------------------------------------------|
B----------|#---#----*------#---#----*------#---#----*------|
G----*---*-|9-#-5-#-4----*--9-#-5-#-4----*--9-#-5-#-4----*--|
D---4---4--|9-2-5-5-4---5---9-2-5-5-4---5---9-2-5-5-4---4--2|
A---2---2--|7-2-3-5-2---5---7-2-3-5-2---5---7-2-3-5-2-------|
E----------|--0---3-----3-----0---3-----3-----0---3---------|
:
# verse #A X2 +=play 8X palm-muted
E-----------------------------------|
B-----------------------------------|
G------------+---------------+------|
D----+------2--------+------4-------|
A---2-------3-------5-------2-------|
E---0---------------3---------------|
# verse #B X2 *=play 6X acoustic
E---0*------0*-------*-------*------|
B---0-------1-------3-------4-------|
G---0-------0-------0-------4-------|
D---2-------2-------0-------4-------|
A-----------------------------------|
E---Em------C-------G-------B-------|
:
# verse-part2 #A *=play 5-7X
E-------------------------------------------------------------------------|
B-----------*--------*------*---------------*--------*--------------------|
G----*-----9--------7------4---------*-----9-------16-----14-------161412-|
D---2-------------------------------2-------------------------------------|
A---2------7--------5------2--------2------7-------14-----12-------141210-|
E---0-------------------------------0-------------------------------------|
# verse-part2 #B *=play 5-7X
E-------------------------------------------------------------------------|
B-----------*---------------*---------------*---------------*-------------|
G----*-----5---------*-----4---------*-----5---------*-----4--------4-2-0-|
D---2------5--------5------4--------2------5--------5------4--------------|
A---2------3--------5------2--------2------3--------5------2--------------|
E---0---------------3---------------0---------------3---------------------|
:
# chorus #A *=play 5-7X
E-------------------------------------------------------------------|
B----*------*--------*------*------------------------*------*-------|
G---5------5--------7------7---------*------*-------7------7--------|
D---5------5--------7------7--------5------5--------7------7--------|
A---3------3--------5------5--------5------5--------5------5--------|
E-----------------------------------3------3------------------------|
# chorus #B *=play 5-7X
E-------------------------------------------------------------------|
B----*---------------*------*------------------------*------*-------|
G---5---------------7------7---------*------*-------7------7--------|
D---5------7-557-5577------7--------5------5--------7------7--------|
A---3---------------5------5--------5------5--------5------5--------|
E-----------------------------------3------3------------------------|
:
Then play AverseBX2 or BverseAX2, Averse-part2A or Bverse-part2B and AchorusA
or BchorusB.
>>>>>>>to next page...
START OVER                                                                2/2  
:
# end-chorus #A&B *=play 6-8X
E-----------------------------------|
B-----------------------------------|
G---5-59-97---------9-97-75---------|
D---5-59-97---------9-97-75---------|
A---3-37-75---------7-75-53---------|
E-----------------------------------|
:                                                                
# bridge #A *=play 5-8X                                           # end-br #A
E-----------------------------------------------------------------|+=play-14X
B----*------*--------*------*--------*------*--------*------*-----|--------|
G---7------4-------12------9--------7------4-------12-----14------|--------|
D-----------------------------------------------------------------|-+------|
A---5------2-------10------7--------5------2-------10-----12------|5-------|
E-----------------------------------------------------------------|3-------|
# bridge #B *=play 5-8X                                           # end-br #B
E-----------------------------------------------------------------|+=play-14X
B--------------------*------*------------------------*------*-----|--------|
G----*------*-------5------2---------*------*-------5------2------|--------|
D---5------2--------5------2--------5------2--------5------2------|-+------|
A---5------2--------3------0--------5------2--------3------0------|5-------|
E---3------0------------------------3------0----------------------|3-------|
:
Then play AintroA or BintroB, AverseAX2 or BverseBX2, Averse-part2A or
Bverse-part2B, AchorusA or BchorusB and A&Bend-chorusA&B.
:         !B plays bridgeBX2 (2nd time last chrd only once+end with 2nd chrd!)
# solo #A h=hammer-on p=pull-off                                    >
E--10-----10-12-10-----------------------------17-15----/----------->
B------------------12-13-12-10-12-10-----------------12-15----17---->
G------------------------------------12----------------------------->
D---------------------------------------12-------------------------->
A------------------------------------------------------------------->
E------------------------------------------------------------------->
>soloA                                                          >
>--151715----h-p---------------------------------|-----|2X|----|>
>----h-p-17151715----h-p-------------------------|-------------|>
>----------------16141614----h-p---------12-14---|---------12--|>
>------------------------17141714--14------------|--h-1214-----|>
>--------------------------------17--------------|1214---------|>
>------------------------------------------------|-------------|>
>soloA
>--------------------------------/----------------------------------|
>-----------------------------15-17---------------------------------|
>----h-1214---/16----16-14-12---------------------------------------|
>--1214-------------------------------------------------------------|
>-------------------------------------------------------------------|
>-------------------------------------------------------------------|
            
Submit corrections

comments powered by Disqus
↑ Back to top | Satanic Surfers Tabs for Start Over. Lyrics for acoustic guitar and electric guitar. Tablatures and chords are parodies/interpretations of the original songs. You may use it for private study, scholarship, research or language learning purposes only