» » »

Satanic Surfers, Soothing Bass tabs (ver.1)

Artists:  A B C D E F G H I J K L M N O P Q R S T U V W X Y Z # 

Soothing Bass tabs (ver.1)

Satanic Surfers Tabs
 Rating:
4/5 (4 votes)
Soothing lessons Tabs too difficult? Try these video lessons and learn fast
                # intro #                                                           >
G------------------------------------------------------------------->
D------------------------------------------------------------------->
A---5-5-------------1-1--------------------------------------------->
E-----------------------------------3-3-------------5-5------------->
intro
-------------------3-3-------------5-5-------------7-7-h-57-77-----|
---5-5-------------------------------------------------57------8-7-|
:                                       
# intro2 # h=hammer-on  p=pull-off  |                               >
G----------7--9-910--10-9---7---5----------1010-910--10-8----------->
D---0---0-------/------------------------------------------10---8--->
A-----------------------------------8---8--------------------------->
E------------------------------------------------------------------->
intro2                             |                               >
-----------4h5p4-7---7-7---5-5-4----------------------------------->
---5---5-------------------------5-7---7-------5-7---7-7----------->
-------------------------------------------5h7-------------8---7--->
intro2                             |                               >
----------111112121414141412------10--10---9-91010---9-9---7---5--->
--12--12----------------------12----------------------------------->
intro2                             |                               >
--10--10---9-91010---9-9--10--12---7---7---6-6-7-7---6-6---7---9--->
intro2
---7---7---6-6-7-7---6-6---7---9---7---7---6-6-7-7---6---9---------|
:
# verse # X2                                                        >
G--|---------------------------------|2X|--------------------------|>
D--|0-0---0-7-5-3-5-0-0---0-7-5-3-5---------2/3-2/3---------3/5-3/5|>
A--|--------------------------------1-1---1---------1-1---1--------|>
E--|---------------------------------------------------------------|>
verse
-----------5-----7-----5-------------------------------------------|
---3-3---3---3-3---3-3---3-3-3---3-0-0---0-0-0---0-0-0---0-0-0---0-|
:
# end-verse # *=play 12X
G-----------------------------------|
D----*---------------*--------------|
A---1---------------3---------------|
E-----------------------------------|
:
# chorus # #=play 6X                                                 
G--|-#--------------------------|2X|--------------------------------|2-------|
D--|3--------#-------#-------#-------#---------------#------3532320-|--------|
A--|--------0-------5-------3-------1--------#------3--------------3|--------|
E--|----------------------------------------3-----------------------|--------|
:
# bridge # #=play 6X
G----------|-------------|2X|--------------|----------------|
D--/57-53-2|-*-------*-------*-------------|----------------|
A----------|5-------1-------0--------*-----|0-------0-------|
E----------|------------------------3------|----------------|
:
# verse2 #                                                          >
G--|---------------------------------|2X|--------------------------|>
D--|0-0---0-7-5-3-5-0-0---0-7-5-3-5---------2/3-2/3---------3/5-3/5|>
A--|--------------------------------1-1---1---------1-1---1--------|>
E--|---------------------------------------------------------------|>
verse2
---3-3---3-3-3---3-3-3---3-3-3---3-0-0---0-0-0---0-0-0---0-0-0---0-|
:
Then play verse, end-verse and chorus.
:
# outro # h=hammer-on                                                     >
G---------------------2-/3-/5--3--0-0---0--2-3--3-2--3-5-7--5------------->
D---0-0---0-7-5-3-5-0------------------------------------------8-7--5--3-->
A------------------------------------------------------------------------->
E---\--------------------FAST--------------------------/------------------>
outro                                                                    >
----------------|---------------------|---------------------------------->
---3--2---------|---------7-----------|---7--8--10-8-7--8--7--5-7--5--7-->
---------3------|5--5--5-----5--8-7-5-|8--------------------------------->
----------------|--------|2X|---------|---------------------------------->
outro                                                                      >
--|---------------------|---------------------------------/7--5----5------->
--|---------7-----------|---7--8--10-8-7--8--7--5-7--5--3--------8----8-7h8>
--|5--5--5-----5--8-7-5-|8------------------------------------------------->
--|--------|2X|---------|-------------------------------------------------->
outro
--------------------------------------------------|
---7--5--3-5--3--2-3--2--0-2--0-------------------|
---------------------------------3--5-5-5-5-------|
--------------------------------------------------|
            
Submit corrections

comments powered by Disqus
↑ Back to top | Satanic Surfers Bass for Soothing. Lyrics for acoustic guitar and electric guitar. Tablatures and chords are parodies/interpretations of the original songs. You may use it for private study, scholarship, research or language learning purposes only