» » »

Seed Of Fear And Anger Tabs (ver.1)

Artists:  A B C D E F G H I J K L M N O P Q R S T U V W X Y Z # 

Seed Of Fear And Anger Tabs (ver.1)

Satanic Surfers
Rating:
0/5 (0 votes)

Hard to play? Try these video lessons and learn fast.
                

Satanic Surfers - Seed Of Fear And Anger

Intro and Verse guitar 1:

Play 5 times

e-----------------------------------------------|
B-----------------------------------------------|
G----------7------------------------------------|
D----7-h9-----9---------------------------------|
A-----------------------------------------------|
E-----------------------------------------------|
  Don?t cry ...


End Of Intro and Verse guitar 1:

e-----------------------------------------------|
B-----------------------------------------------|
G-----------7-----------------------------------|
D----7-h9------9---7----7--5--4--5--------------|
A-----------------------7--5--4--5--------------|
E-----------------------5--3--2--3--------------|
                        A  G  F# G

Intro and Verse guitar 2 :

         P.M._          P.M._          P.M._         P.M._
e---------------------------------------------------------------|
B---------------------------------------------------------------|
G----4---4-4-4---4-------------------------------9---9-9-9---9--|
D----4---4-4-4---4--4---4-4-4---4--5---5-5-5--5--9---9-9-9---9--|
A----2---2-2-2---2--4---4-4-4---4--5---5-5-5--5--7---7-7-7---7--|
E-------------------2---2-2-2---2--3---3-3-3--3-----------------|
     B              F#             G             E (high)

Fill in:

         P.M._                    End Of Intro And Verse (same as guitar 1)
e-------------------------------------------------------------------|
B-------------------------------------------------------------------|
G----4---4-4-4---4--------------------------------------------------|
D----4---4-4-4---4--4---4>5-5---7-----7--5--4--5--------------------|
A----2---2-2-2---2--4---4>5-5---7-----7--5--4--5--------------------|
E-------------------2---2>3-3---5-----5--3--2--3--------------------|
     B              F#    G     A     A  G  F# G


Pre-Chorus :

Play 4 times
e-----------------------------------------------|
B-----------------------------------------------|
G----7-7-7-7------------------------------------|
D----7-7-7-7-4-4-4-4-5-5-5-5-7-7-7-7------------|
A----5-5-5-5-4-4-4-4-5-5-5-5-7-7-7-7------------|
E------------2-2-2-2-3-3-3-3-5-5-5-5------------|
     D       F#      G       A
     So evil , so f**king ....

End Of Pre-Chorus :

e-----------------------------------------------|
B-----------------------------------------------|
G-----------------------------------------------|
D----2-2-2--4-4-4--5-5-5--7-7-7-----------------|
A----2-2-2--4-4-4--5-5-5--7-7-7-----------------|
E----0-0-0--2-2-2--3-3-3--5-5-5-----------------|
     E      F#     G      A


Chorus:

e-----------------------------------------------|
B-----------------------------------------------|
G------------7-7-7-7-7-7------------------------|
D----9-9-9-9-7-7-7-7-7-7-5-5-5-5-5-5-5-5-5-5----|
A----9-9-9-9-5-5-5-5-5-5-5-5-5-5-5-5-5-5-5-5----|
E----7-7-7-7-------------3-3-3-3-3-3-3-3-3-3----|
     B       D           G
     Full moon .....

Fill in :

e-----------------------------------------------|
B-----------------------------------------------|
G------------7-7-7-7-7-7---------9-9-9-9-9-9----|
D----9-9-9-9-7-7-7-7-7-7-5-5-5-5-9-9-9-9-9-9----|
A----9-9-9-9-5-5-5-5-5-5-5-5-5-5-7-7-7-7-7-7----|
E----7-7-7-7-------------3-3-3-3----------------|
     B       D           G       E (high)

Bridge (I?m not sure about it) guitar 1 :

e-----------------------------------------------|
B-----------------------------------------------|
G----9-9--7---9-9--7----------------------------|
D----7-7--7---9-9--7----------------------------|
A-----------------------------------------------|
E-----------------------------------------------|

Bridge guitar 2 : same as Intro and Verse guitar 2
            
Hard to play? Try these video lessons and learn fast. | Correct




comments powered by Disqus
↑ Back to top | Tablatures and chords are parodies/interpretations of the original songs. You may use it for private study, scholarship, research or language learning purposes only