>
 >
Satanic Surfers

Satanic Surfers Guitar Tabs

Satanic Surfers - Satanic Surfers chords, tabs, tablatures, lyrics

Guitar lessons | Add/correct | Request | Top 50 tabs Artists:  A B C D E F G H I J K L M N O P Q R S T U V W X Y Z 0-9

Satanic Surfers Guitar Tabs – Satanic Surfers

CD, Sheet music, Poster

Do you like Satanic Surfers? Share with your friends now
Tabs
------------------------------------------------------------------------------- 
------------------------------------------------------------------------------- 


Intro: 
e|---------------------------------------------------------------------------| 
B|---------------------------------------------------------------------------| 
G|-9-9--------7--7-7-7-7-7---9-9--------7------------------------------------| 
D|-9-9--5-7-5-7--7-7-7-7-7---9-9--5-7-5-7--(EVIL !)--------------------------| 
A|-7-7--5-7-5-5--5-5-5-5-5---7-7--5-7-5-5------------------------------------| 
E|------3-5-3---------------------3-5-3--------------------------------------| 

Verse 1: play 4 times 
e|---------------------------------------------------------------------------| 
B|---------------------------------------------------------------------------| 
G|-9-9-9-9---------7-7-7-7-7-7-7-7--------------------5-5-5-5-5-5-5-5--------| 
D|-9-9-9-9-5-5-5-5-7-7-7-7-7-7-7-7--5-5-5-5--7-7-7-7--5-5-5-5-5-5-5-5--------| 
A|-7-7-7-7-5-5-5-5-5-5-5-5-5-5-5-5--5-5-5-5--7-7-7-7--3-3-3-3-3-3-3-3--------| 
E|---------3-3-3-3------------------3-3-3-3--5-5-5-5-------------------------| 

Riff 1: 
e|---------------------------------------------------------------------------| 
B|---------------------------------------------------------------------------| 
G|-7-7-7-7-7---7--7-7-7--7-7-------------------------------------------------| 
D|-7-7-7-7-7---7--7-7-7--7-7-------------------------------------------------| 
A|-5-5-5-5-5---5--5-5-5--5-5-------------------------------------------------| 
E|---------------------------------------------------------------------------| 

Chorus goes like this: 
-chorus 1st part once 
-chorus 2nd part once 
-chorus 1st part once 
-chorus 2nd part once. 

Chorus: 
(1st part) 
e|---------------------------------------------------------------------------| 
B|---------------------------------------------------------------------------| 
G|-----------------------------------5-5-5-5-5-5-5-5----9--9-9-7--7-7--------| 
D|-5-5-5-5-5-5-5-5--7-7-7-7-7-7-7-7--5-5-5-5-5-5-5-5----9--9-9-7--7-7--------| 
A|-5-5-5-5-5-5-5-5--7-7-7-7-7-7-7-7--3-3-3-3-3-3-3-3----7--7-7-5--5-5--------| 
E|-3-3-3-3-3-3-3-3--5-5-5-5-5-5-5-5------------------------------------------| 

chorus (2nd part): 
e|---------------------------------------------------------------------------| 
B|---------------------------------------------------------------------------| 
G|-----------------------------------5-5-5-5-5-5-5-5--7-7-7-7-7-7-7-7--------| 
D|-5-5-5-5-5-5-5-5--7-7-7-7-7-7-7-7--5-5-5-5-5-5-5-5--7-7-7-7-7-7-7-7--------| 
A|-5-5-5-5-5-5-5-5--7-7-7-7-7-7-7-7--3-3-3-3-3-3-3-3--5-5-5-5-5-5-5-5--------| 
E|-3-3-3-3-3-3-3-3--5-5-5-5-5-5-5-5------------------------------------------| 

Riff 2: 
|--p.m.-----| |--p.m.-----| |---p.m.----| |----p.m.----| 
e|---------------------------------------------------------------------------| 
B|---------------------------------------------------------------------------| 
G|-9-9--------------9-9--------------7-7--------------7-7--------------------| 
D|-9-9-6-7-999-76---9-9-6-7-999-76---7-7-4-5-777-54---7-7-4-5-777-54---------| 
A|-7-7-----------7--7-7-----------7--5-5-----------7--5-5-----------7--------| 
E|---------------------------------------------------------------------------| 

Riff 2 (cont.): 
|---p.m.----| |---p.m.----| |----p.m.---| |---p.m.----| 
e|---------------------------------------------------------------------------| 
B|---------------------------------------------------------------------------| 
G|-9-9--------------9-9--------------7-7-------------------------------------| 
D|-9-9-6-7-999-76---9-9-6-7-999-76---7-7-4-5-777-54---9-9--------------------| 
A|-7-7-----------7--7-7-----------7--5-5-----------7--9-9-6-7-999-76---------| 
E|----------------------------------------------------7-7-----------7--------| 

Riff 3: 
note: parenthesis aren't song notes but they help to keep the beat 
e|---------------------------------------------------------------------------| 
B|---------------------------------------------------------------------------| 
G|---------------------------------------------------------------------------| 
D|---6-7-9-7-6-7-6-----------------4-5-7-5-4-5-4-----------------------------| 
A|-7---------------7---5-(5)(5)--5---------------5---------------------------| 
E|--------------------------------------------------7-(7)(7)-----------------| 

Riff 3 (cont.): 
e|---------------------------------------------------------------------------| 
B|---------------------------------------------------------------------------| 
G|---------------------------------------------------------------------------| 
D|---6-7-9-7-6-7-6-----------------4-5-7-5-4-5-4-----------------------------| 
A|-7---------------7---5-(5)(5)--5---------------5---------------------------| 
E|---------------------------------------------------------------------------| 

Riff 4: 
e|---------------------------------------------------------------------------| 
B|---9-10-12-10-9-10-9----------------7-8-10-8-7-8-7-------------------------| 
G|-9-------------------9--7-(7)(7)--7----------------7-----------------------| 
D|-----------------------------------------------------9-(9)(9)--------------| 
A|---------------------------------------------------------------------------| 
E|---------------------------------------------------------------------------| 

Riff 4 (cont.): 
e|---------------------------------------------------------------------------| 
B|---------------------------------------------------------------------------| 
G|----------------------------------------------------7----------------------| 
D|---6-7-9-7-6-7-6----------------4-5-7-5-4-5-4----9--7----------------------| 
A|-7---------------7--5-(5)(5)--5---------------5--9--5----------------------| 
E|-------------------------------------------------7-------------------------| 

Riff 5: 

note: all in palm mute 

play 10 times 
e|---------------------------------------------------------------------------| 
B|---------------------------------------------------------------------------| 
G|-9-9--7-7--5-5--4-4--5--7--------------------------------------------------| 
D|-9-9--7-7--5-5--4-4--5--7--------------------------------------------------| 
A|-7-7--5-5--3-3--2-2--3--5--------------------------------------------------| 
E|---------------------------------------------------------------------------| 

Riff 6: 

(because, I was evil... evil) 
e|---------------------------------------------------------------------------| 
B|---------------------------------------------------------------------------| 
G|-5-5-5-5-5-5-5-5-5-5-5--7-7-7-7-7-7-7-7-7--7-------------------------------| 
D|-5-5-5-5-5-5-5-5-5-5-5--7-7-7-7-7-7-7-7-7--7-------------------------------| 
A|-3-3-3-3-3-3-3-3-3-3-3--5-5-5-5-5-5-5-5-5--5-------------------------------| 
E|---------------------------------------------------------------------------| 

play chorus 
+ play chorus 2nd part once (of my butt... of my butt..) 

outro: 
bend last note 
e|---------------------------------------------------------------------------| 
B|---9-10-12-10-9-10-9-------------------------------------------------------| 
G|-9-------------------9--7--------------------------------------------------| 
D|---------------------------------------------------------------------------| 
A|---------------------------------------------------------------------------| 
E|---------------------------------------------------------------------------| 

===============================================================================





Comments


Popular Satanic Surfers tabs & chords
Equal Rights Bass Tabs
Egocentric Chords
Evil Tabs
Good Morning Tabs
Miss Bigmouth Tabs
Nun Tabs
Seed Of Fear And Anger 1 Tabs
Sunshiny Day Tabs
Wishing You Were Here Tabs
Got To Throw Up Ukulele


Song lyrics



↑ Back to top | Tablatures and chords are parodies/interpretations of the original songs. You may use it for private study, scholarship, research or language learning purposes only
© 2014 AZChords.com Contact us | Privacy policy | DMCA | Add/correct tabs | Request tabs | Top 50 tabs