>
 >
Puppet

Puppet Bass Tabs

Satanic Surfers - Puppet chords, tabs, tablatures, lyrics

Guitar lessons | Add/correct | Request | Top 50 tabs Artists:  A B C D E F G H I J K L M N O P Q R S T U V W X Y Z 0-9

Puppet Bass Tabs – Satanic Surfers

CD, Sheet music, Poster

Do you like Puppet? Share with your friends now
Bass TabsTabs
# intro #
G---------------------------------------------------------------------|
D-----------------------------------------------------------3---------|
A---5-----------------------------------------------------------------|
E---------------------------------------------------3--4--5-----------|
:
# line #   
G--|-----------------------------2X--------------------------------|------|
D--|----------------3---------------------------------------3------|------|
A--|5-5---5-5----------5--3----------------------------------------|3-----|
E--|------------------------5--4--3-1-1---1-1-1---1-3--4--5--------|------|
:   +               +               +               +               +
# line2 #                                                 # into-verse #
G--|----577--------|---------------------------------|    G-----------|
D--|0-0-------5-3--|---------------------------------|    D---3--2----|
A--|--------------3|---------------------------------|    A---------3-|
E--|-------3X------|1-----3-----5----------------5---|    E-----------|
:
# verse # X2 *=play 5-6X  #=play 3X
G--------------------#--------------------------------------------|
D----*-------*-----23----#---*-------*-------*-------*-------*----|
A---5-------5-----------3---1-------0-------0-------3-------3-----|
E-----------------------------------------------------------------|
:
# chorus # *=play 6X
G-----------------------------------------------------------------|
D----*-------*-------*-------*-------*-------*-------*-------*----|
A---5-------3-------1-------0-------5-------3-------1-----/12-----|
E-----------------------------------------------------------------|
:
# end-chorus # *=play 6X #=play 3X p=pull-off
G------------------12-----------------------14-------------10---------|
D----*---------------12p10--10-------#--------1412\101212----1210-----|
A--10---------------------12--12-1012----------------------------1210-|
E---------------------------------------------------------------------|
:
Then play line2.
:
# bridge # (You must...)                                            >
G------------------------------------------------------------------->
D---------5/7------------8/10---8----------------------------------->
A---5-----------7-7-8--------------------8/10---8-------------7-8--->
E-----------------------------------8---------------6-----6--------->
bridge                                                             >
------------------------9/10---9----------------------------------->
---------5/7------------------------------------------------------->
---5-----------7-7-8--------------------8/10---8-------------7-8--->
-----------------------------------8---------------6-----6--------->
bridge                                                             >
---------5/7------------8/10---8----------------------------------->
---5-----------7-7-8--------------------8/10---8-------------8-7--->
-----------------------------------8---------------6-----6--------->
bridge                                                             >
------------------------9/10---9----------------------------------->
---------5/7------------------------------------------------------->
---5-----------7-7-8--------------------8/10---8-------------8-7--->
-----------------------------------8---------------6-----6--------->
:
bridge                                                             >
---------5/7---5--------9/10---9----------------------------------->
----------------------------------------8/10---8------------------->
---5---------------8-----------------------------------------7-8--->
-----------------------------------8---------------6-----6--------->
bridge                                                              
---------5/7------------8/10---8-----------------------------------|
---5-----------7-7-8--------------------8/10---8-------------7-8---|
-----------------------------------8---------------6-----6---------|
:
# SOLO # X2 h=hammer-on |=rhythm help !FAST!                                 >
G-------------------------------------------------10------------------------->
D-----------------------------12-10------------------7-8-7-----7------------->
A---------------------8-10-12-------12-8---8-8-8-8-----------8-----8-7-8---7->
E--1010--10-8-10-8h10-------------------------------------------------------->
SOLO                                                                         
--------------------------1012--121512--------------------|-END-1st|-END-2nd|
-------------------810--10------------15-8--10-8-8--------|-time---|-time---|
-------------8--10------------------------10-------7-8-7--|--------|--------|
---8-6---8-8----------------------------------------------|6-8-----|6-8---9-|
:
Then play verseX2 and chorus.
:
# end-chorus2 # *=play 6X #=play 3X p=pull-off
G------------------12-----------------------14---------10-------------|
D----*---------------12p10--10-------#--------1412\1012----1210-------|
A--10---------------------12--12-1012--------------------------12--10-|
E---------------------------------------------------------------------|
:
# outro #                  
G-------577---------------|
D---0-0-------5-3---------|
A-----------------3-5-5---|
E-------------------------|





Comments


Popular Satanic Surfers tabs & chords
Discontent Bass Tabs
Hard To Be Yourself Bass Tabs
Miss Bigmouth 1 Bass Tabs
Why? Bass Tabs
Egocentric Chords
Sunshiny Day Chords
Dickweed Tabs
Don't Skate On My Ramp Tabs
Good Morning Tabs
The Bass Song Tabs


Song lyrics



↑ Back to top | Tablatures and chords are parodies/interpretations of the original songs. You may use it for private study, scholarship, research or language learning purposes only
© 2014 AZChords.com Contact us | Privacy policy | DMCA | Add/correct tabs | Request tabs | Top 50 tabs